Demolidor

Carbona

Composição de: Henrique Badke
tom: F
Riff 1:

e|----------------------------------------------------------------|
B|----------------------------------------------------------------|
G|--------------------------------------------|       2x       |--|
D|----------------------------5-------5---5--------7-------7---7--|
A|-------7-------7---7---3-3-----3-3----3-----5-5-----5-5----5----|
E|--5-5-----5-5----5----------------------------------------------|

Na segunda vez faça:

e|-----------------------------------------------|
B|-----------------------------------------------|
G|-----------------------------------7-----------|
D|-------7-----------7---------7--------7-----7--|
A|--5-5-----5-----5-------5-5-----5--------5-----|
E|-----------------------------------------------|

Riff 2:

e|-----------------------------------------------------------------|
B|-----------------------------------------------------------------|
G|------------------------5-5-5---5---5-3---5---7-7-7-7-7-7-7-7-7--|
D|--7-7-7---7---7-7---7---5-5-5---5---5-3---5---7-7-7-7-7-7-7-7-7--|
A|--7-7-7---7-- 7-7---7---3-3-3---3---3-3---3---5-5-5-5-5-5-5-5-5--|
E|--5-5-5---5---5-5---5---*-*-*-------*-*-------*-*-*-*-*-*-*-*-*--|
    * * *       * *

Riff 1
O demolidor não se intimida em destruir as coisas
Que um dia foram um dia alguém e você também!
Saiba que o bom profissional do ramo
Ao menos se sensibiliza
Registrando tudo antes do final

E você foi sem dizer tchau
Se esquecendo que a demolição 
Não se resume em destruir
E sim salvar tudo o que for possível

Riff 2
O demolidor não se intimida em destruir as coisas
Que um dia foram de alguém e você também!
Saiba que o bom profissional do ramo 
Ao menos se sensibiliza
Deixando as coisas claras antes do final

E você foi sem dizer tchau
Se esquecendo que a demolição 
Não se resume em destruir
E sim salvar tudo o que for possível

          A             A
Agora já foi, agora já foooooooooooi
          A             A
Agora já foi, agora já foooooooooooi
          A             A
Agora já foi, agora já foooooooooooi
          A             A
Agora já foi, agora já foooooooooooi
          A
Agora já era
 A (P.M.)                      A
Resta apenas um terreno a vendaaaaa!
Página 1 / 1

Letras e título
Acordes e artista

resetar configurações
OK