Cifra Club

Aprenda

Eu, você e seu husky siberiano

Carbona

Cifra: Principal (violão e guitarra)
Já pensou em usar uma coleção de roupas do Cifra Club? Responda as perguntas abaixo e nos ajude nessa missão! →
tom: B
Intro
Solo:
e|--7-6-6-7-6----------------7-6-6-7-6--------|
B|7------------9-7-9-7-7---7----------9-7-7---|

e|--7-6-6-7-6----------------7-6---7-6-------|
B|7------------9-7-9-7-7---7----7------------|

Base: B D# E F#

B       D#     E         F#
Hoje eu vou na casa da Camila,
B     D#          E         F#
Aprender o que a vida tem de bom.
B      D#         E           F#
Vou seguir o conselho dos amigos
B      D#        E          F#
Mandar bem e contar tudo depois

Pre - Chorus

E           F#         B
Nada nessa vida é tão bom
E           F#         B
Nada nessa vida é tão bom

Chorus

E           F#    B            G#
Quanto eu, você e seu husky siberiano
E    F#     B         (F#)
Eu , você a a a

Solo:
e|--7-6-6-7-6---------------7-6-6-7-6--------|
B|7------------9-7-9-7-7---7----------9-7-7--|

B      D#          E              F#
Me disseram que o amor é como um jogo
B      D#    E       F#
Uma espécie de competição
B    D#    E         F#
Onde o primeiro nada ganha
B      D#       E       F#
E o segundo se sagra campeão.

Pre - Chorus

E           F#         B
Nada nessa vida é tão bom
E           F#         B
Nada nessa vida é tão bom

Chorus

E           F#    B            G#
Quanto eu, você e seu husky siberiano
E    F#     B
Eu , você a a a
E           F#    B            G#
Quanto eu, você e seu husky siberiano
E    F#     B      (F#)
Eu , você a a a

Solo:
e|--7-6-7-6-9-7-6-----7-6-7-6-9-7-6---11-9-7-9-7---7-9--11-9-7-9-7---7-9---|
B|7-----------------7----------------------------9-----------------9-------|

(Pre Chorus)

(Chorus)

Solo fim:
e|--7-6-6-7-6----------------7-6-6-7-6--------|
B|7------------9-7-9-7-7---7----------9-7-7---|

e|--7-6-6-7-6----------------7-6---7-6-7-7---|
B|7------------9-7-9-7-7---7-----7-----------|


Qualquer duvida, email me:
Composição de Henrique Badke
Colaboração e revisão:
  • Marcelo Souza
5.179 exibições
    • ½ Tom
    • A
    • Bb
    • B
    • C
    • Db
    • D
    • Eb
    • E
    • F
    • F#
    • G
    • Ab
  • Adicionar à lista

    0 comentários

    Ver todos os comentários

    Conseguiu tocar?

    0 Tocaram 0 Ainda não

    Grave um vídeo tocando Eu, você e seu husky siberiano e nos envie!

    00:00 / 00:00
    Outros vídeos desta música
    Repetir Qualidade Automático
    Outros vídeos desta música
    00:00 / 00:00
    Automático

    Cifra Club Pro

    Aproveite o Cifra Club com benefícios exclusivos e sem anúncios
    Cifra Club Pro
    Aproveite o Cifra Club com benefícios exclusivos e sem anúncios
    OK