Cifra Club

Aprenda

If You Wanna Dance

Carbona

Cifra: Principal (violão e guitarra)
Quer fazer aulas de música com a gente? Responda essas perguntas
e nos ajude nesse projeto! →
tom: A
 Introduçao
 e|--------------------------------------------------------|
 B|--------------------------------------------------------|
 G|--------------------------------------------------------|
 D|-----6/7-7-7-7--6/7-7-7-7--6/7-7-7-7--6/7-7-7-7---------|
 A|-----4/5-5-5-5--4/5-5-5-5--4/5-5-5-5--4/5-5-5-5---------|
 E|--------------------------------------------------------|

 Firts Rule ( Repete duas vezes )
 e|-----------------------------------------------------------|
 B|-----------------------------------------------------------|
 G|------------------------7-7-7-7-7-7-7-7--9-9-9-9-9-9-9-9---|
 D|---7-7-7-7-7 7-7-7-7-7--7-7-7-7-7-7-7-7--9-9-9-9-9-9-9-9---|
 A|---7-7-7-7-7-7-7-7-7-7--5-5-5-5-5-5-5-5--7-7-7-7-7-7-7-7---|
 E|---5-5-5-5-5-5-5-5-5-5-------------------------------------|
 "If you wanna dance, come on and take.." 

 Refraum
 e|------------------------|
 B|------------------------|  R e p e t e 
 G|--------------7-7--9-9--|      trez vezes
 D|---7-7-7-7-7--7-7--9-9--|     e vai pra
 A|---7-7-7-7-7--5-5--7-7--|         ponte!
 E|---5-5-5-5-5------------|

 Ponte!
 e|--------------------------------------------------|
 B|--------------------------------------------------|
 G|---7-7-7-7-7--9-9-9-9-9-------------(-9-9-9-)-----|
 D|---7-7-7-7-7--9-9-9-9-9--7-7-7-7-7--(-9-9-9-)-----|
 A|---5-5-5-5-5--7-7-7-7-7--7-7-7-7-7--(-7-7-7-)-----|
 E|-------------------------5-5-5-5-5----------------|
 


If you Wanna Dance

If you wanna dance
Come on and take the chance
Come on and take the chance 
To dance with me
I'll show you steps
A girl has never seen before
I tell you will adore
I tell you, you'll adore
Yeah! You ain't seen
I tell you , you ain't seen
If you wanna dance!
If you wanna dance!
If you wanna dance!
I say come take a chance 
To dance with me
Composição de Henrique Badke
Colaboração e revisão:
  • leonardo barbosa
2.077 exibições
    • ½ Tom
    • A
    • Bb
    • B
    • C
    • Db
    • D
    • Eb
    • E
    • F
    • F#
    • G
    • Ab
  • Adicionar à lista

    0 comentários

    Ver todos os comentários

    Conseguiu tocar?

    0 Tocaram 0 Ainda não

    Grave um vídeo tocando If You Wanna Dance e nos envie!

    00:00 / 00:00
    Outros vídeos desta música
    Repetir Qualidade Automático
    Outros vídeos desta música
    00:00 / 00:00
    Automático

    Cifra Club Pro

    Aproveite o Cifra Club com benefícios exclusivos e sem anúncios
    Cifra Club Pro
    Aproveite o Cifra Club com benefícios exclusivos e sem anúncios
    OK