Cifra Club

Aprenda

Macarroni Girl

Carbona

Cifra: Principal (violão e guitarra)
Quer fazer aulas de música com a gente? Responda essas perguntas
e nos ajude nesse projeto! →
tom: A
Intro
      A    E     F#      D                 F#    E    D
e|-----------------------------|         --------------------
B|-----------------------------|         --------------------
G|-----------------------7-----|  2X     -------------7------
D|----7----2-----4-------7-----|         ---4----2----7------
A|----7----2-----4-------5-----|         ---4----2----5------
E|----5----0-----2-------------|         ---2----0-----------

Pré - verso
      D# / E 
e|------------------
B|------------------
G|-----8-/-9-------  3X
D|-----8-/-9--------
A|-----6-/-7-------
E|------------------

Verso 1
      A     E     F#     D                  F#    E    D
e|-----------------------------|         --------------------
B|-----------------------------|         --------------------
G|-----------------------7-----|  2X     --------------7-----
D|----7----2-----4-------7-----|         ----4----2----7-----
A|----7----2-----4-------5-----|         ----4----2----5-----
E|----5----0-----2-------------|         ----2----0----------

Verso 2
       B     D      A            A / A# / B         D     A
e|--------------------------|-----------------|--------------------
B|--------------------------|-----------------|--------------------
G|-----------7--------------|-----------------|-----7--------------
D|-----9-----7------7-------|----7-/-8-/-9----|-----7-----7--------
A|-----9-----5------7-------|----7-/-8-/-9----|-----5-----7--------
E|-----7------------5-------|----5-/-6-/-7----|-----------5--------

Verso 3
      E     D
e|-------------------
B|-------------------
G|----9-----7--------
D|----9-----7--------
A|----7-----5--------
E|-------------------

agora as letras:

  |Little girl sits in the back of the room
  |At the first day of school
2×|The teacher ask the kids their names
  |And the things they like to do
  |The things they like to do...

  |The boys and girls they acted so strange
  |Telling her about the futil games they play
  |Then little girl, she whispers Paula is my name
2×|Eating macarroni is driving me insane
  |And she'll always be my Macarroni girl
  |She's the only one who's always to rock my world

I was there I couldn't stand they picking on the little girl
They just can't see the fact that in this greedy world full of hate
There's no such virtue as having little pleasures like the one she has
And besides that, they should had sense of humor and take it as a subjective joke

  |And she'll always be my Macarroni girl
2×|She's the only one who's always to rock my world

3×|The only one who rocks my world
Composição de Henrique Badke
Colaboração e revisão:
  • leonardo barbosa
6.745 exibições
    • ½ Tom
    • A
    • Bb
    • B
    • C
    • Db
    • D
    • Eb
    • E
    • F
    • F#
    • G
    • Ab
  • Adicionar à lista

    0 comentários

    Ver todos os comentários

    Conseguiu tocar?

    0 Tocaram 0 Ainda não

    Grave um vídeo tocando Macarroni Girl e nos envie!

    00:00 / 00:00
    Outros vídeos desta música
    Repetir Qualidade Automático
    Outros vídeos desta música
    00:00 / 00:00
    Automático

    Cifra Club Pro

    Aproveite o Cifra Club com benefícios exclusivos e sem anúncios
    Cifra Club Pro
    Aproveite o Cifra Club com benefícios exclusivos e sem anúncios
    OK