Meu primeiro all star

Carbona

tom: A
Intro       A             C#m             D 
e|-------------------------------------------------------------------|
b|-------------------------------------------------------------------|
g|---9-7-6---9-7-6---9-7-6---9-7-6---9-7-6---9-7-6-------------------|
d|--7-------7-------7-------7-------7-------7------------------------|
a|-------------------------------------------------------------------|
e|-------------------------------------------------------------------|
            E
e|-------------------------------------------------------------------|
b|-------------------------------------------------------------------|
g|--7-6-7-6---9-7-6--------------------------------------------------|
d|------------------9-7----------------------------------------------|
a|-------------------------------------------------------------------|
e|-------------------------------------------------------------------|


A                      C# 
Não foi preciso ir ao shopping pra comprar
D                                 E
foi só pegar alguns trocados e ir correndo pro bazar
A                      C# 
Tinha de todas as cores, mas o Joey usava preto
D                       E
e é dessa cor que eu resolvi comprar


D         E            C#
Quando a 1ª vez a gente nunca esquece
D        E         F#
Eu nunca mais vou me esquecer
D       E     A           D                     E                A
Nada há se compara com o dia em que eu comprei meu primeiro All Star


Bridge: A F# D E
e|----------9-----------9----------12---------12---|
B|----------9-----------9----------12---------12---|
G|--11b(13)-----11b(13)-----14b(16)----14b(16)-----|
D|-------------------------------------------------|
A|-------------------------------------------------|
E|-------------------------------------------------|

OUTRO:
e|---------------------------------------|
B|---------------------------------------|
G|-----6h7p6-7p6-7p6-7p6-7p6--9-7-6-4----|
D|---------------------------------------|
A|---------------------------------------|
E|---------------------------------------|
Página 1 / 1

Letras e título
Acordes e artista

resetar configurações
OK