Cifra Club

Aprenda

Brincadeira

Carne Doce

Tab de baixo: Principal
G|--------------------------------------------------------|
D|--------------------------------------------------------|
A|--------------------------------------------------------| 
E|--5-5--5-5----5-5--5-5----5-5--5-5----5-5--5-5----------|                      

G|----------------------------------------------------------|
D|----------------------------------------------------------|
A|-------------4---9-9---9-9---9/11----4-4--4-4----4-4--4-4-|   
E|--5-5--5-5------------------------------------------------|

G|----------------------------------------------------------------|
D|----------------------------------------------------------------|
A|--------------4---9-9---9-9--9/11----4-4--4-4----4-4--4-4---4/3-| 
E|--5-5--5-5------------------------------------------------------|

G|----------------------------------------------------------------|
D|----------------------------------------------------------------|
A|------------4--7--9-9---9-9--9/11----4-4--4-4----4-4------------| (2x)
E|--5-5--5-5---------------------------------------------0-0---0--|

G|--------------------------------------------------------|
D|--------------------------------------------------------|
A|--------------------4---4-----4-------------------------| (2x)
E|--5---5----2---2-------------------0---0----------------|

G|--------------------------------------------------------|
D|--------------------------------------------------------|
A|-----------4/3----------------4---4----4---0---------7--| 
E|--5---5---------2---2---2/4--------------------7h9------|  

G|----------------------------------------------------------|
D|----------------------------------------------------------|
A|-----------4/3----------------4---4----4---7x---7h9--7----| 
E|--5---5---------2---2---2/4-----------------------------9-|    

       Desespero, eu no meio...
G|--------------------------------------------------------|
D|--------------------------------------------------------|
A|--------------------4---4----4----7x----7h9--7----------| 
E|--5---5----2---2-------------------------------9--------| 

G|--------------------------------------------------------|
D|--------------------------------------------------------|
A|--------------------4---4----4----0--------7------------|
E|--5---5----2---2----------------------7h9-----9---------|                       

G|---------------------------------------------------------------------|
D|----------------------------------11---------------------------------|
A|------------4--7--9-9---9-9--9/11----11---4-4----4-4----7-7---/7-11--|   
E|--5-5--5-5-----------------------------------------------------------|

G|-----------------------------------------------------------|
D|-----------------------------------------------------------|
A|------------4--7--9-9---9-9--9/11----4-4--4-4----4-4--4-4--| 
E|--5-5--5-5-------------------------------------------------|

G|------------------------------------------|
D|------------------------------------------|
A|--10-10--9-9----10-10--9-9----10-10--9-9--| 
E|------------------------------------------|   

 É que as vezes, eu me sinto bobo...
G|-------------------------------------------------------------------------------------------|
D|-------------------------------------------------------------------------------------------|
A|--7---7---7---10---9----7---0---10---9---7---7-----7---10--9----7---7------7-9--10-7-10-9--|
E|-------------------------------------------------7----------------------7x-----------------|   

G|------------------------------------------------------------------------------------------------|
D|------------------------------------------------------------------------------------------------|
A|--11-9---7---7---7---10-7-10-9---11-9---7---7---------10-7-10-9----11-9---7---7---7--10-7-10-9--|
E|------------------------------------------------0-7-9-------------------------------------------|             

G|--------------------------------------------------|
D|---------------9----------------------------------|
A|-------------9----------------12---12-----12---9--| 
E|--7---7---7-------7---7---7-----------------------|   

G|-------------------------------------------------------------------------|
D|------------------16-----------------------------------------------------|
A|--14------14x-14-----16--14-14---17-17---19/-12---12----11--9-------7----| 
E|-------14----------------------------------------------------------7h9---|   

G|------------------------------------------------------------------------------------|
D|------------------------------------------------------------------------------------|
A|-------------------------------------4--7--9-9---9-9--9/11----4-4--4-4----4-4--4-4--| 
E|--5-5--5-5---5-5-5--5-5----5-5--5-5-------------------------------------------------|
Composição de Fernando Almeida / Macloys Aquino
Colaboração e revisão:
  • William Eduardo
113 exibições

0 comentários

Ver todos os comentários

Conseguiu tocar?

1 Tocaram 0 Ainda não

Grave um vídeo tocando Brincadeira e nos envie!

00:00 / 00:00
Outros vídeos desta música
Repetir Qualidade Automático
Outros vídeos desta música
00:00 / 00:00
Automático

Cifra Club Pro

Aproveite o Cifra Club com benefícios exclusivos e sem anúncios
Cifra Club Pro
Aproveite o Cifra Club com benefícios exclusivos e sem anúncios
OK