Cifra Club

Aprenda

As Rosas Não Falam

Cartola

Cifra: Principal (violão e guitarra)
Quer fazer aulas de música com a gente? Responda essas perguntas
e nos ajude nesse projeto! →
tom: Dm
[Intro] Dm  Dm/C    Gm/Bb  E7  A7  Dm  A7

    Dm              Dm/C
E|---1---1-1---------1---1-1---------------|
B|---3---3-3---------3---3-3---------------|
G|---2---2-2---------2---2-2---------------|
D|-0---------3-0-------------3-0-----------|
A|---------------4-3-------------3-2-------|
E|-----------------------------------------|

                  Gm/Bb
E|-------------------3---3-3---------------|
B|---3---3-3---------3---3-3---------------|
G|---1---1-1---------0---0-0---------------|
D|---3---3-3-0-----------------------------|
A|-2-----------3-2-1-------1-0-------------|
E|-----------------------------3-1---------|

    E7              A7
E|-------------------3---3---3---3---------|
B|---0---0---0---1---2---2---2---2---------|
G|---1---1---1---1---2---2---2---2---------|
D|---0---0---0---0-------------------------|
A|---------2-------0-----------4-----------|
E|-0---------------------------------------|

    Dm
E|---1---1-1-------------------------------|
B|---3---3-3-------------------------------|
G|---2---2-2-------------------------------|
D|-0-------0-------------------------------|
A|-----------------------------------------|
E|-----------------------------------------|

    Dm         A7
E|-----------------------------------------|
B|-----------------------------------------|
G|--2-0------------------------------------|
D|------3-2-0---2-0------------------------|
A|------------4-----4-1-0-------------0----|
E|------------------------3---1---3--------|

 Dm            Dm/C
Bate outra vez
                 Gm/Bb      Gm/F
Com esperança o meu coração
                  E7             A7/C#   A7
Pois já vai terminando o  verão
   Dm  A7
Enfim

 Dm             Dm/C
Volto ao jardim
                   E7/G#       E7/D
Com a certeza que devo chorar
                       Gm/Bb       A7  A7/E
Pois bem sei que não queres voltar
 Dm      D7/F#
Para mim

  Gm                     Gm/F
Queixo-me às ro  -  sas,      mas que bobagem
    Dm             Dm/C
As rosas não falam
                 E7/B        E7/D
Simplesmente as rosas exalam
      E7/B     A7     A7/E
O perfume que roubam de ti, Ai!

         Gm7                    Gm/F
E|------------------------------------------
B|---3---3---3---3---------------3----------
G|---3---3---3---3-----------0-3------------
D|---3---3---3---3-------0-2----------------
A|---------------------1--------------------
E|-3-------3---1---0-3----------------------
    Dm                Dm/C               E7/B
E|---1------------------1-------------------
B|---3------------------3-------------------
G|---2---1/2------------2---1/2-------------
D|-0---------3-2----------------3-2-0-------
A|---------------5-4-3----------------3-2---
E|------------------------------------------
                   E7/D
E|-0--0--------------0---0----0---0---------
B|-0--0--------------0---0----0---0---------
G|-1--1--------------1---1----1---1---------
D|------------2-1-0--------0----------------
A|----------2-------------------------------
E|--------4---------------------------------

         A7
E|---0---0----------------------------------
B|---2---2----------------------------------
G|---0---0----------------------------------
D|------------------------------------------
A|-0-------0--------------------------------
E|------------------------------------------

E|------------------------------------------
B|------------------------------------------
G|-0-2-3------0-----------------------------
D|--------2-3-----0-2-----------------------
A|--------------4------0-1-4----------------
E|----------------------------0-1-3-1-0-----

Dm            Dm/C
   Devias vir
                 Gm/Bb            Gm/F
Para ver os meus olhos tristonhos
                E7        E7/B  A7/C#  A7
E quem sabe sonhavas meu sonho
    Dm   A7
Por fim

    Dm                Dm/C             Gm/Bb
E|---1---1-------------1---1----------------
B|---3---3-------------3---3----------------
G|---2---2---1/2-------2---2----------------
D|-0-------0-----3------------0-------------
A|-----------------5-3----------4-3-2-1-----
E|------------------------------------------
                    Gm/F
E|------------------------------------------
B|---3---3-----------3---3---3----3---------
G|---0---0-----------3---3---3----3---------
D|---2---2-----------3---3---3----3---------
A|---------1-0------------------------------
E|-------------3-2-1-------3---1------------
   E7   E7/B        A7/C#    A7       Dm
E|-------------------------------------1--1-
B|---0------------------2-------2------3--3-
G|---1------------------0-------0------2--2-
D|---0---0-3-2-1-0----2---2---2---2--0------
A|-----2-----------4--------0---------------
E|-0-4--------------------------------------
                  A7
E|------------------------------------------
B|-----------------2------------------------
G|---------------2--------------------------
D|-3-2h3p2-0---3----------------------------
A|-----------4--------0-----0----------------
E|------------------------------------------

Dm            Dm/C
   Devias vir
                 Gm/Bb           Gm/F
Para ver os meus olhos tristonhos
                E7        E7/B  A7  A7/E
E quem sabe sonhavas meu sonho
     Dm   Dm9
Por fim

    Dm                Dm/C             Gm/Bb
E|---1---1-------------1---1----------------
B|---3---3-------------3---3----------------
G|---2---2-----2-------2---2----------------
D|-0-------0-----3------------0-------------
A|-----------------5-3----------4-3-2-1-----
E|------------------------------------------
                    Gm/F
E|------------------------------------------
B|---3---3-----------3---3---3----3---------
G|---0---0-----------3---3---3----3---------
D|---2---2-----------3---3---3----3---------
A|----------1-------------------------------
E|-------------3-2-1-------1---1------------

    E7  E7/B         A7/C#     A7        Dm
E|------------------------------------------
B|---0-------------------2--------2---------
G|---1-------------------0--------0---------
D|---0---0-3-2-1-0-----2----2---2----2--0---
A|-----2------------4---------0--------------
E|-0-4--------------------------------------
           A7                  Dm9
E|----------------------------12------------
B|----2-----------------------10------------
G|--2---3--2-0----------------10------------
D|-------------3-2-0----------0-------------
A|--------------------1-0-------------------
E|------------------------1-----------------
Composição de Cartola
619.242 exibições
  • Simplificar cifra
    • ½ Tom
    • Am
    • Bbm
    • Bm
    • Cm
    • C#m
    • Dm
    • Ebm
    • Em
    • Fm
    • F#m
    • Gm
    • G#m
  • Adicionar à lista

    0 comentários

    Ver todos os comentários

    Conseguiu tocar?

    62 Tocaram 14 Ainda não

    Grave um vídeo tocando As Rosas Não Falam e nos envie!

    00:00 / 00:00
    Outros vídeos desta música
    Repetir Qualidade Automático
    Outros vídeos desta música
    00:00 / 00:00
    Automático
    Capítulos
    • Início
    • Tocando a música
    • Acordes da Introdução
    • Tocando Introdução
    • Ensinando Introdução
    • Ensinando Introdução (Baixaria)
    • Acordes da Primeira Parte
    • Tocando Primeira Parte
    • Ensinando Primeira Parte
    • Ensinando Primeira Parte (Baixaria)
    • Acordes da Segunda Parte
    • Tocando Segunda Parte
    • Ensinando Segunda Parte
    • Acordes da Terceira Parte
    • Tocando Terceira Parte
    • Ensinando Terceira Parte
    • Ensinando Terceira Parte (Baixaria)
    • Dicas e acordes para repetição
    • Tocando Repetição - Final
    • Ensinando Variação - Primeira Parte
    • Ensinando Variação 1ª vez (Baixaria)
    • Ensinando Variação 2ª vez (Baixaria)
    • Encerramento

    Cifra Club Pro

    Aproveite o Cifra Club com benefícios exclusivos e sem anúncios
    Cifra Club Pro
    Aproveite o Cifra Club com benefícios exclusivos e sem anúncios
    OK