Pingo de Decência

Cartolas

Composição de: Dé Silveira
tom: F#m
[Intro]

   F#m
E|----------------------------------------
B|----------------------------------------
G|----------------------------------------
D|----------------------------------------
A|---9--9-7-7-5-5-4-4-5-5-4-4-------------
E|----------------------------7-5---------  2x

   D7M
E|----------------------------------------
B|----------------------------------------
G|----------------------------------------
D|---4--4-6-6-7-7-6-6-4-4-----------------
A|----------------------7-7-5-4-----------
E|----------------------------------------

   C#4/Eb
E|----------------------------------------
B|----------------------------------------
G|----------------------------------------
D|---4--4-6-6-7-7-6-6-4-4-----------------
A|----------------------7-7-5-4-----------
E|----------------------------------------

F#m
Muito embora eu
                              D7M   C#4/Eb  D7M
Muito embora eu não tenha um pingo
F#m
De decência
                            D7M     C#4/Eb  D7M
Paciência amor, mas não me sinto

Bm
Tão culpado assim
E
Tão culpado assim
Bm
Por eu não dizer
C#7
Por eu não dizer

F#m
Vez em quando eu
                        D7M     C#4/Eb  D7M
Vez em quando eu não admito
F#m
Minha distração
                         D7M    C#4/Eb  D7M
Soa mais bacana quando grito

Bm
Que eu sou assim
E
Que eu sou assim
Bm
Por eu não dizer
C#7
Por eu não dizer

F#m        D7M   C#4/Eb     D7M
Vem consertar minha cabeça dura
F#m        D7M   C#4/Eb        D7M
Vem consertar minha cabeça    aaaaaa

Bm
Que eu sou assim
E
Que eu sou assim
Bm
Por eu não dizer
C#7
Por eu não dizer

F#m        D7M   C#4/Eb     D7M
Vem consertar minha cabeça dura
F#m        D7M   C#4/Eb        D7M
Vem consertar minha cabeça    aaaaaa

[Final]

   F#m
E|----------------------------------------
B|----------------------------------------
G|----------------------------------------
D|----------------------------------------
A|---9--9-7-7-5-5-4-4-5-5-4-4-------------
E|----------------------------7-5--------- 2x

   C#4/Eb
E|----------------------------------------
B|----------------------------------------
G|----------------------------------------
D|---4--4-6-6-7-7-6-6-4-4-----------------
A|----------------------7-7-5-4-----------
E|---------------------------------------- 2x

E|-------------------------------------------------
B|-------------------------------------------------
G|------------------------------------9-9-10-10-11-
D|--------------------9-9-11-11-13-13--------------
A|---9--9-11-11-12-12------------------------------
E|-------------------------------------------------
Página 1 / 1

Letras e título
Acordes e artista

resetar configurações
OK