Cifra Club

O Peso do Meu Coração

Castello Branco

Cifra: Principal (violão e guitarra)
Tom: G
    G6
E|-------------------------|
B|-------------------------|
G|-----4-----2-------------|
D|-----------------4-----2-|
A|-------------------------|
E|-3-3---3-3---3-3---3-3---|

    Em7
E|---------------------------------------------------|
B|-----8-----12---10-----7-----12-----10----7-----12-|
G|---------------------------------------------------|
D|---------------------------------------------------|
A|---------------------------------------------------|
E|-0-0---0-0---0-0---0-0---0-0---0-0----0-0---0-0----|


G6
Você não é
                      Em7
Quem você pensa que é

G6
Você não tem
                         Em7
Quem você pensa que tem

                G6
Pra entender o amor
Faça um trato com a fé
Diz que o céu, quando quer
Força o braço que for
                 Em7
E abrir o mar aí
E abrir o mar, aí

                G6
Pra entender o amor
Faça um trato com a fé
Diz que o céu, quando quer
Força o braço que for
              Em7
E abrir o mar aí
              Em7
E abrir o mar aí


Am          Em
     Fica mais leve
                          Am
     O peso do meu coração
            Em
     Fica mais leve
                          Am
     O peso do meu coração
exibições 15.788
Acordes para:
    Colaboração e revisão:
    • Alphonsus Tolosa
    • Ágassi Narciso

    0 comentários

    mostrar mais comentários

    Conseguiu tocar?

    9 tocaram 3 ainda não

    Grave um vídeo tocando O Peso do Meu Coração e mande pra gente!

    00:00 / 00:00
    outros vídeos desta música
    repetir qualidade Automático
    Outros vídeos desta música
    00:00 / 00:00
    Automático
    OK