Cifra Club

Black Friday Cifra Club

O Peso do Meu Coração

Castello Branco

Cifra: Principal (violão e guitarra)
tom: G
[Intro]

    G6
E|---------------------------------------------------------|
B|---------------------------------------------------------|
G|-----4-----2---------------------------------------------|
D|-----------------4-----2-------0-------0-------0-------0-|
A|---------------------------------------------------------|
E|-3-3---3-3---3-3---3-3----3-3-----3-3-----3-3-----3-3----|

   G6
E|---------------------------------------------------------|
B|---------------------------------------------------------|
G|-----4-----2---------------------------------------------|
D|-----------------4-----2-------5-------5-------5-------5-|
A|---------------------------------------------------------|
E|-3-3---3-3---3-3---3-3----3-3-----3-3-----3-3-----3-3----|

[Primeira Parte]

    G6                       
E|---------------------------------------------------|
B|---------------------------------------------------|
G|-----4-----2---------------------------------------|
D|-----------------4-----2---------------------------|
A|---------------------------------------------------|
E|-3-3---3-3---3-3---3-3-----------------------------|

    G6
E|-----------------------------------------------------|
B|-----------------------------------------------------|
G|-----4-----2-----------------------------------------|
D|-----------------4-----2p0---------------------------|
A|-----------------------------------------------------|
E|-3-3---3-3---3-3---3-3-------------------------------|

    Em7
E|-----------------------------------------------------|
B|-----8-----12---10-----7-----12-----10----7-----12p0-|
G|-----------------------------------------------------|
D|-----------------------------------------------------|
A|-----------------------------------------------------|
E|-0-0---0-0---0-0---0-0---0-0---0-0----0-0---0-0------|

G6
Você não é
                      Em7
Quem você pensa que é

G6
Você não tem
                         Em7
Quem você pensa que tem

                G6
Pra entender o amor

Faça um trato com a fé

Diz que o céu, quando quer

Força o braço que for
                 Em7
E abrir o mar aí

E abrir o mar, aí

                G6
Pra entender o amor

Faça um trato com a fé

Diz que o céu, quando quer

Força o braço que for
              Em7
E abrir o mar aí
              Em7
E abrir o mar aí

Am          Em
     Fica mais leve
                      Am
O peso do meu coração
      Em
Fica mais leve
                     Am
O peso do meu coração
00:00 / 00:00
Outros vídeos desta música
Repetir
Outros vídeos desta música
Composição de Castello Branco
Colaboração e revisão:
  • matheus fernandez
  • Alphonsus Tolosa
  • Ágassi Narciso
36.384 exibições
    • ½ Tom
    • A
    • Bb
    • B
    • C
    • Db
    • D
    • Eb
    • E
    • F
    • F#
    • G
    • Ab
  • Adicionar à lista

    0 comentários

    Ver todos os comentários

    Conseguiu tocar?

    23 Tocaram 8 Ainda não

    Grave um vídeo tocando O Peso do Meu Coração e nos envie!

    Entre para oCifra Club PRO

    Tenha acesso a benefícios exclusivos no App e no Site

    • Chega de anúncios

    • Prioridade de compra em lançamentos

    • Mais recursos no app do Afinador

    • Atendimento Prioritário

    • Descontos nos produtos Cifra Club

    • Ajude a produzir mais conteúdo

    00:00 / 00:00

    Cifra Club Pro

    Aproveite o Cifra Club com benefícios exclusivos e sem anúncios
    Cifra Club Pro
    Aproveite o Cifra Club com benefícios exclusivos e sem anúncios
    OK