Cifra Club

Eu Quero Sol Nesse Jardim

Catedral

Cifra: Principal
exibições 327.510
Tom: G
Introdução:

       G       D/F#       Em      C  D  D4  D  C  D  D4  G  D/F#  Em  C  D  D4  C  D  D4
E|-----3-------2-------0--0--0----/
B|----3-3-2---3-3-3---0--0--0-0-0-/
G|---0---3---2---2---0--0--0---0--/
D|--------------------------------/
A|--------------------------------/
E|--3-------2-------0-------------/


   G         D             Em
    Eu quero sol nesse jardim
               C        D  D4  D
    Quero a justiça e paz
             C       D  D4 D     G
    Quero andar nas ruas sem temer
               D            Em
    Eu quero o brilho do luar
              C    D  D4  D
    Eu quero viajar
         C         D            C   D  G
    Pelo azul do céus e quero te entender

            C   D   Em
    Quero te conhecer
          C
    Quero correr ao encontro
         Am               D
    De tudo que tive e perdi,
                   D4  D
    nem sei por que!
             C     D   G
    Quero aprender a amar
            C   D  Em
    E saber perdoar
            C                      Am
    Pois teu amor no meu peito me mostra
                    D
    direito o caminho
                  D4  D
    Para ser feliz

   G         D             Em
    Eu quero sol nesse jardim
            C          D  D4  D
    Quero a luz da manhã
                C     D                 G
    E a mais perfeita de todas as canções
              D            Em
    Quero a verdade no olhar
               C        D  D4  D
    Eu quero amor sem fim
               C           D
    Tenho a certeza que você nasceu
          C
    pra mim.     Final:  C  Bm  A  G



     Solo:  G  D/F#  Em  C  D  D4  D  C  D4  D  - 2X
E|--------------------------------------------------------------15-13-12----------/
B|-------------------12-13-12-------13-----------------15-13-12----------15-13-12-/
G|-18-16-16-14-14-12----------14-12----15-13--15-13-12----------------------------/
D|--------------------------------------------------------------------------------/
A|--------------------------------------------------------------------------------/
E|------------------------------------- ------------------------------------------/


E|-----------------------------------/
B|-----------------------------------/
G|-15-13-12--------------------------/
D|----------15-13-12-----------------/
A|-------------------15-13-12--------/
E|----------------------------15-13-/

É interessante escutar a música para poder executar o solo nos tempos corretos!!
Acordes para:
    Colaboração e revisão:
    • Humberto Damaya

    0 comentários

      mostrar mais comentários

      Conseguiu tocar?

      26tocaram1ainda não

      Grave um vídeo tocando Eu Quero Sol Nesse Jardim e mande pra gente!

      00:00 / 00:00
      outros vídeos desta música
      repetirqualidadeautomática
      Outro vídeos desta música
        00:00 / 00:00
        automática
        OK