Cifra Club

Aprenda

Eu Navegarei

Católicas

Tab de baixo: Principal
Católicas
Eu Navegarei
INTRO: 
G|---------------------------------------------------
D|---------------------------------------------------
A|-7------------------5---7----------------------------
E|-----5--3--1---3--------------------------------------

Parte 1
Eu navegarei no oceano do Espírito e ali adorarei
G|-----------------------------------------------------------------
D|-----------------------------------------------------------------
A|---------------5---7-----------------5--7---------------------
E|-5--3--1--3-------------5--3--1--3------------------------------

Refrão 1
Espírito, Espírito, que desce como um fogo vem como.
Pentecostes      e enche-me de novo
G|---------------------------------------------------------------
D|---------------------------------------------------------------               (2x)
A|------------------5--7----------------------------------------
E|---5--3--1--3-----------------------------------------------

Parte 2
Eu adorarei ao Deus da minha vida , que me compreendeu
G|---------------------------------------------------------------------
D|---------------------------------------------------------------------
A|---------------5--7-----------------5--7------------------------
E|--5--3--1--3----------5--3--1--3--------------------------------





Refrão 1     (2x)
Espírito, Espírito, que desce como um fogo vem como.
G|---------------------------------------------------------------
D|---------------------------------------------------------------               (2x)
A|------------------5--7----------------------------------------
E|---5--3--1--3-----------------------------------------------

Parte 3
Eu servirei ao meu Deus fiel ao meu libertador
G|--------------------------------------------------------------------
D|--------------------------------------------------------------------
A|---------------5--7-----------------5--7---------------------------
E|--5--3--1--3----------5--3--1--3------------------------------------

Refrão 2
Espírito, Espírito, que desce como um fogo vem como.
G|-------------------------------------------------------------------
D|-----------------------------------------------------------------                  (2x)
A|-7-----3------------5--7----------------------------------------
E|----5-----3--1--3-----------------------------------------------

-------------------------contribuição Pedro Andreatta-------------
Composição de Pastor Azmaveth Carneiro Da Silva
Colaboração e revisão:
  • Gabriel Silveira
4.383 exibições

0 comentários

Ver todos os comentários
00:00 / 00:00
outros vídeos desta música
repetir qualidade Automático
Outros vídeos desta música
00:00 / 00:00
Automático

Cifra Club Pro

Aproveite o Cifra Club com benefícios exclusivos e sem anúncios
Cifra Club Pro
Aproveite o Cifra Club com benefícios exclusivos e sem anúncios
OK