Cifra Club

Hino da Cf 2013

Católicas

Cifra: Principal
exibições 83.966
Tom: G
Intro: C D C/E D/F# G A C C/D

E|--------------------------------7-8-8p7------8-7---10-----|
B|-------8------7----7-8--7h8-10----------8--------8--------|
G|---------7-9-----9------------------------9---------------|
D|---7h9----------------------------------------------------|
A|----------------------------------------------------------|
E|----------------------------------------------------------|

( Gm7 F/G Gm7 A D7 )

              Gm7                       Cm7
1. Sei que perguntas, juventude, de onde veio
          D7                      Gm7  F/A  G/B
Teu belo jeito sempre novo e verdadeiro.
         Cm7                        Gm7
É fiz brotar em ti, desde o materno seio,
        A       D              G
Essa vontade de mudar o mundo inteiro.

           G#°   Am7              C/D            G
Refrão:  Estou aqui, Senhor, sou Jovem, sou teu povo!
         Em        Em/D         C    Am
Eu tenho fome de justiça e de amor!
          D                        G
Quero ajudar a construir um mundo novo
  G#°   Am7             C/D             G
Estou aqui,meu Senhor, sou Jovem, sou teu povo!
         Em        Em/D        C    Am
Para formar a rede da fraternidade,
           D                        G
E um novo céu, nova terra,  tua vontade,
Em  D    C    D          G   D/F#
Eis-me aqui envia-me, Senhor !
Em  D    C    D          G   A   C   C/D
Eis-me aqui envia-me, Senhor !


E|--8-7-----------------8-7---10-----|
B|------8-------7-8-10------8--------|
G|--------9---9----------------------|
D|-----------------------------------|
A|-----------------------------------|
E|-----------------------------------|

Gm7 F/G Gm7 A D7

2. Levem a todos meu chamado à liberdade
onde a ganância gera irmãos escravizados.
Quero a mensagem que humaniza a sociedade
falada às claras, publicada nos telhados.

REFRÃO

E|--8-7--------14h15p14-12-----------------|
B|------8------------------15-13-12----15--|
G|--------9-------------------------12-----|
D|-----------------------------------------|
A|-----------------------------------------|
E|-----------------------------------------|

Gm7 F/G Gm7 A D7

3. Para salvar a quem perdeu a esperança;
Serei a força plena luz a te guiar;
Por tua voz eu falarei em confiança;
Não tenhas medo novo reino a chegar;

REFRÃO

Final: FRASE EM G

E|-------------------12--15-------|
B|---------------15---------------|
G|-----------12-------------------|
D|-----12-14----------------------|
A|--10----------------------------|
E|--------------------------------|
Acordes para:

    0 comentários

      mostrar mais comentários

      Conseguiu tocar?

      9tocaram1ainda não

      Grave um vídeo tocando Hino da Cf 2013 e mande pra gente!

      00:00 / 00:00
      outros vídeos desta música
      repetirqualidadeautomática
      Outro vídeos desta música
        00:00 / 00:00
        automática
        OK