Notificações Amigos pendentes

      Católicas

      Vem e Eu Mostrarei

      54.399 exibições
      Tom: D
      
      E|-----0-2-3--3-3/5-5/7/8--8-7-5--3--0-----|
      B|-3-3----------------------------------3--|
      G|-----------------------------------------|
      D|-----------------------------------------|
      A|-----------------------------------------|
      E|-----------------------------------------| (2x)
      
      
      E|-----0-2-3-3-3/5-5/7/8--8-7-5-3-3-5-7-8--|
      B|-3-3-------------------------------------|
      G|-----------------------------------------|
      D|-----------------------------------------|
      A|-----------------------------------------|
      E|-----------------------------------------|
      
      
      E|--8-7-8p7p5-3-5~--3-5-7-8-7p8---3-5--3-3~|
      B|-----------------------------10----------|
      G|-----------------------------------------|
      D|-----------------------------------------|
      A|-----------------------------------------|
      E|-----------------------------------------|
      
      
      
      
      D              Bm              G                A7
         Vem e eu mostrarei que o meu caminho te leva ao pai. 
              D             Bm            G             A7
         Guiarei os passos teus e junto a Ti hei de seguir. 
                   D         F#          G      A7
         Sim, eu irei e saberei como chegar ao fim
                  D           F#             G      A7      D   (Bm G A7 D)
         De onde vim pra onde vou, por onde irás, irei, também. 
      
          D             Bm                G         A7
         Vem e eu te direi o que ainda estás a procurar
               D            Bm          G            A7
         A verdade é como o sol e invadirá o teu coração. 
                  D           F#           G      A7
         Sim eu irei e aprenderei minha razão de ser 
                     D              F#          G      A7     D     (Bm G A7 D)
         Eu creio em Ti que crês em mim, e Tua luz, verei a luz. 
      
         D              Bm         G           A7
         Vem, e eu te farei da minha vida participar
              D           Bm            G          A7
         Viverás em mim aqui: viver em mim é o bem maior.
                  D          F#          G       A7
         Sim, eu irei e viverei a vida inteira assim.
                D        F#                  G     A7        D   (Bm G A7 D)
         Eternidade é, na verdade, o amor vivendo sempre em nós.
      
         D                  Bm                 Em          A7
         Vem, que a terra espera quem possa e queira realizar
              D              Bm          Em           A7
         com amor, a construção de um mundo novo muito melhor!
                  D         F#               G       A7
         Sim, eu irei e levarei Teu nome aos meus irmãos.
                 D           F#            G       A7    D   (Bm G A7 D)
         Iremos nós e o Teu amor vai construir enfim a PAZ!

      Comentários 1

      140 .
      • Vanessa Vanessa: Em 22/11/2013 19:43

        Qual é a batida

      140 cancelar

      conseguiu tocar?

      • •••
      Wilson da conceição sarmento1.561 visualizações
        ver covers de outras músicas »
        0:00 / 0:00

        Capítulos

          1 versão de violão dificuldade exibições contribuição e correção
          1 versão de guitarra dificuldade exibições contribuição e correção
          1 versão de cavaco dificuldade exibições contribuição e correção
          1 versão de teclado dificuldade exibições contribuição e correção
          play/pausefechar subir/descer velocidade
          6ª corda E5ª corda A4ª corda D3ª corda G2ª corda B1ª corda E
            acordes
            publicidade
            fechar
            ok