Cifra Club

Aprenda

Vinde Cristãos

Católicas

Tab de baixo: Principal
Já pensou em usar uma coleção de roupas do Cifra Club? Responda as perguntas abaixo e nos ajude nessa missão! →
G|------------------------------------------------------------------|
D|------------------------------------------------------------------|
A|-------5-----------------------5----------------------------------|
E|--------------3--------5------------------------------------------| (2x)

G|-----------------------------------------------------------------|
D|-----------------------------------------------------------------|
A|-----------------------5-----------------------------------------|
E|-------3------5--------------------------------------------------| (2x)

G|-----------------------------------------------------------------|
D|-----------------------------------------------------------------|
A|-------5----2-----7----------5----2-----------5------------------|
E|-----------------------3---------------5------------3-----5------|

G|-----------------------------------------------------------------|
D|-----------------------------------------------------------------|
A|--5----2-----7----------5----2-----------5----------------5------|
E|--------------------3---------------5------------3-----5---------|

G|-----------------------------------------------------------------|
D|-----------------------------------------------------------------|
A|-----------------------5-----------------------------------------|
E|-------3------5--------------------------------------------------| (3x)

G|-----------------------------------------------------------------|
D|-----------------------------------------------------------------|
A|-------5-----------------------5---------------------------------|
E|--------------3--------5-----------------------------------------| (4x)[tab#cnt/]
Composição de Católicas
Colaboração e revisão:
  • victor
1.073 exibições

0 comentários

Ver todos os comentários
00:00 / 00:00
outros vídeos desta música
repetir qualidade Automático
Outros vídeos desta música
00:00 / 00:00
Automático

Cifra Club Pro

Aproveite o Cifra Club com benefícios exclusivos e sem anúncios
Cifra Club Pro
Aproveite o Cifra Club com benefícios exclusivos e sem anúncios
OK