Cifra Club

Aprenda

Reina Senhor

Celina Borges

Cifra: Principal (violão e guitarra)
Tom: D
Riff inicial e da introdução

  HN HN HN HN HN HN HN HN HN HN HN HN HN HN HN HN HN HN HN HN HN HN HN HN
E|------12-------12-------12-------12-------12-------12-------12-------12--|
B|-7-------7--------7--------7--------7--------7--------7--------7---------|
G|---7--------7--------7--------7--------7--------7--------7--------7------|
D|-------------------------------------------------------------------------|
A|-------------------------------------------------------------------------|
E|-------------------------------------------------------------------------| (2x)

  HN HN HN HN HN HN HN HN HN HN HN HN HN HN HN HN HN HN HN HN HN HN
E|------12-------12-------12-------12-------12-------12-------12-7--|
B|-7-------7--------7--------7--------7--------7--------7--------7--|
G|---7--------7--------7--------7--------7--------7--------7-----7--|
D|------------------------------------------------------------------|
A|------------------------------------------------------------------|
E|------------------------------------------------------------------|

Solo introdução e Base

   D    F#m7 G9 A     D     F#m7  G9 A

E|------------------------------7-7~-7/9-7----|
B|-7p5-7----/5--2-3-5-5-7p5-/10------------8--|
G|-7-----6~-----------7-----------------------|
D|-7--------/7--2-4-5-7-----/11---------------|
A|--------------------------------------------|
E|--------------------------------------------|

   D     F#m7  G9   A       D     F#m7  G9 G
                                           
E|--------------------------10-9-7-9-7-5-7---|
B|-7p5-7-/10--10p5~-2-3-5--------------------|
G|-7-----------------------------------------|
D|-7-----/11--------2-4-5--------------------|
A|-------------------------------------------|
E|-------------------------------------------|

D F#m7  G      A/C#
Reina, Reina senhor
D F#m7 G A/C#
Reina
D       F#m7 G A/C#
Reina senhor
Bm F#m7 G A/C#
Reina

G         A/C#
Quero exaltar-te
    D    F#m7   G D/F#
Soberano rei Jesus
Em7          A
Príncipe da Paz
       D       F#m7   G9
Que venceu e ressuscitou
                       A
Para a gloria de Deus pai


D F#m7  G      A
Reina, Reina senhor
D F#m7 G A/C#
Reina
D       F#m7 G A/C#
Reina senhor
Bm F#m7 G A
Reina

G           A/C#
Santo é seu nome
    D    F#m7   G D/F#
Poderoso rei Jesus
Em7        A
Entre as Nações
            D   F#m7 G9
Quem não te glorificará
             A
Ó santo dos santos

D F#m7  G      A
Reina, Reina senhor
D F#m7 G A/C#
Reina
D       F#m7 G A/C#
Reina senhor
Bm F#m7 G9
Reina

D   F#m7 G9    A  D   F#m7 G9     A
Nanananá Nanananá Nanananá Nanananá
D   F#m7 G9    A  D   F#m7 G9     A
Nanananá Nanananá Nanananá Nanananá
B  C#m7  D#m7  C#m7 B  C#m7  D#m7
A  aaa   aaa   aaa  A  aaa   aaa
B  C#m7  D#m7  C#m7 B  C#m7  D#m7 F#4
A  aaa   aaa   aaa  A  aaa   aaa  Aaaaaaa

G9  A4

D F#m7  G      A
Reina, Reina senhor
D F#m7 G A/C#
Reina
D       F#m7 G A/C#
Reina senhor
Bm F#m7 G A
Reina (2x)

G  G  D
Composição de Celina Borges
Colaboração e revisão:
  • Silas Silva
  • Lucas Lima
2.247 exibições
    • ½ Tom
    • A
    • Bb
    • B
    • C
    • Db
    • D
    • Eb
    • E
    • F
    • F#
    • G
    • Ab
  • Adicionar à lista

    0 comentários

    Mostrar mais comentários
    00:00 / 00:00
    outros vídeos desta música
    repetir qualidade Automático
    Outros vídeos desta música
    00:00 / 00:00
    Automático

    Cifra Club Pro

    Aproveite o Cifra Club com benefícios exclusivos e sem anúncios
    7 dias grátis
    Cifra Club Pro
    Aproveite o Cifra Club com benefícios exclusivos e sem anúncios
    7 dias grátis
    OK