En Attendant Ses Pas

Céline Dion

Composição: Jean-Jacques Goldman
Tom: Ab (forma dos acordes no tom de G ) Capotraste na 1ª casa

Capo I

Tuning: EADGBE


Intro

|-----------3-|-2-----0--2-|-3--2--0----|------------|
|---0----3----|----3-------|----------0-|-0--1-------|
|-2---0-------|------------|------------|-------0--2-|
|-------------|-0----------|-2----------|------------|
|-------------|------------|------------|-3----------|
|-----3-------|------------|------------|------------|


Riff 1

|-----------3-|-2-----0--2-|-3--2--0----|------------|
|---0----3----|----3-------|----------0-|-3--1-------|
|-2---0-------|------------|------------|-------0--2-|
|-------------|-0----------|-2----------|------------|
|-------------|------------|------------|-3----------|
|-----3-------|------------|------------|------------|

En attendant ses pas, je mets la musique en sourdine, tout bas
Trop bête, on ne sait pas, s'il sonnait
Si je n'entendais pas cette fois
En attendant ses pas ce matin-là


|-3-------------|-3--------5-|
|----3--1--3--1-|-------1----|
|---------------|------------|
|---------------|------------|
|-3-------------|----3-------|
|---------------|------------|


Riff 2

|-3--------3-|-2-----0--2-|-3--2--0----|------------|
|-3-----3----|----3-------|----------0-|-3--1-------|
|------------|------------|------------|-------0--2-|
|------------|-0----------|-2----------|------------|
|------------|------------|------------|-3----------|
|----3-------|------------|------------|------------|
Página 1 / 1

Letras e título
Acordes e artista

resetar configurações
OK