Cifra Club

Km 11

Cenair Maicá

Cifra: Principal
exibições 19.506
Tom: A
E|------------9-9-12---9-12-9------------|-----------------------------------|
B|---10-10-10-----------------12-9-10-12-|-9-9-9-9-10-9-12---9-9-9-9-----12--|
G|-9-------------------------------------|---------------------------11-9----|
D|---------------------------------------|-----------------------------------|
A|---------------------------------------|-----------------------------------|
E|---------------------------------------|-----------------------------------|

E|-------------------------------------------------|----------------------------------------------|
B|--------------10-----10-----10-----10------------|-----------------------9-10-12-12-12-10-9-10--|
G|-9-9-9-9-11-9----11-9---11-9---11-9---11-11/12---|---------------9-12-12------------------------|
D|----------------------------------------------12-|-12-12-12-12-9--------------------------------|
A|-------------------------------------------------|----------------------------------------------|
E|-------------------------------------------------|----------------------------------------------|
 
( A  E  A F#m E A )
( A  E  A F7  C D A E A )

  A                                         E
Nerendápe ayú yevi de nuevo a implorar tu amor
                                          A
solo hay tristeza y dolor al hallarme mombiri
                  F#m                      E
La culpa mante arekó de todo lo que he sufrido
                                                A
por eso es que ahora he venido jha kangui ete aikó
                                         E
Ani ke nde resarai que un dia a este cantor
                                               A
les has dicho lleno de amor nderejhein nda vi si
                    F#m                         E
Che ndaikua ai anghaite si existe en tus pensamientos
                                        A
aquel puro sentimiento reirekóva che rejhe

                           E
An nde pochi angha che ndive
                       A
desengaño ite mante arekó
          A7             C
Che aka tavi angha oikualá
       D    A        E       A
nde rejhe kuñá che upeicha aikó

Nunca vayas a olvidar
que un día este cantor
te dijo, lleno de amor,
'sin ti no podré vivir'.
Culpable tan sólo soy
de lo mucho que he sufrido.
Por eso es que ahora he venido
y triste, muy triste estoy.
Acordes para:
    Composição: Tránsito CocomarolaColaboração e revisão:
    • Ronaldo Teles
    • Estévan Silva

    0 comentários

      mostrar mais comentários

      Conseguiu tocar?

      3tocaram0ainda não

      Grave um vídeo tocando Km 11 e mande pra gente!

      00:00 / 00:00
      outros vídeos desta música
      repetirqualidadeautomática
      Outro vídeos desta música
        00:00 / 00:00
        automática
        OK