Cifra Club

Aprenda

Julgamento de Um Boi

Cezar e Paulinho

Cifra: Principal (violão e guitarra)
tom: A
E|-9---9---9---9------9-9--7-7-5-5-4----12-12-11-10-7-5-4-4-7-7-5-4-5|
B|-10-10--10--10-----10-10-9-9-7-7-5----14-14-13-12-9-7-5-5-9-9-5-5-5|
G|-------------------------------------------------------------------|
D|-------------------------------------------------------------------|
A|-------------------------------------------------------------------|
E|-------------------------------------------------------------------|

Se os animais falassem, ouviríamos agora o depoimento de um boi, que matou um toureiro para salvar sua própria vida.
A                   F#7          Bm                         E                     A
Eu fui laçado e arrastado da capoeira, e foi de qualquer maneira me jogaram na prisão
               F#7         Bm                  E                        A
Ajoelhado implorava nessa hora, amarrado na gaiola como se fosse um ladrão.
A          E                    A        F#m              Bm       E             A
Mas eu confesso aos senhores jurados, tentei pular o alambrado e fugir pro estradão
           D                         A         F#m          Bm           E             A
Mas nesta hora, pelos homens fui barrado. Veja meu corpo marcado por pancada e por ferrão

E|-9---7-5-4-7-4-2-0-4-0---------|
B|-10--9-7-5-9-5-3-2-5-2-3-2-0-2-|
G|-----------------------4-2-1-2-|
D|-------------------------------|
A|-------------------------------|
E|-------------------------------|
A                    F#7       Bm                      E                          A
E lá na arena neste beco sem saída, para não perder a vida, triste luta eu enfrentei
                    F#7        Bm                      E                   A
Todo o aplauso era pro meu inimigo, temendo grande perigo, desesperado chorei
          E                   A             F#m         Bm            E          A
Mas não sabia o toureiro desumano, que em defesa dos rebanhos muitas feras derrotei
          D                     A          F#m       Bm         E            A
Com minha alma envolvida na tristeza, em legítima defesa, para não morrer matei.

E|-9---7-5-4-7-4-2-0-4-0---------|
B|-10 -9-7-5-9-5-3-2-5-2-3-2-0-2-|
G|-----------------------4-2-1-2-|
D|-------------------------------|
A|-------------------------------|
E|-------------------------------|

A                    F#7              Bm                       E                         A
Lida a sentença, se diga ao bem da verdade, me foi dado a liberdade de voltar ao meu rincão
                  F#7            Bm                          E                      A
Na despedida, eu disse quando partia, sei que vou morrer um dia por capricho do patrão
         E                    A            F#m            Bm            E           A
Então serei retalhado em pedacinhos pra alimentar seus filhinhos no recheio de seu pão.
         D                       A         F#m         Bm       E            A
A minha carne lhe darei neste momento, em forma de pagamento da minha absolvição.

E|-9---7-5-4-7-4-2-0-4-0---------|
B|-10--9-7-5-9-5-3-2-5-2-3-2-0-2-|
G|-----------------------4-2-1-2-|
D|-------------------------------|
A|-------------------------------|
E|-------------------------------|

Composição de Manoel Vidal / Miguel Vidal
Colaboração e revisão:
  • LUCIANO ALVES
537 exibições
    • ½ Tom
    • A
    • Bb
    • B
    • C
    • Db
    • D
    • Eb
    • E
    • F
    • F#
    • G
    • Ab
  • Adicionar à lista

    0 comentários

    Ver todos os comentários
    00:00 / 00:00
    Outros vídeos desta música
    Repetir Qualidade Automático
    Outros vídeos desta música
    00:00 / 00:00
    Automático

    Cifra Club Pro

    Aproveite o Cifra Club com benefícios exclusivos e sem anúncios
    Cifra Club Pro
    Aproveite o Cifra Club com benefícios exclusivos e sem anúncios
    OK