Cifra Club

Caso Marcado

César Menotti e Fabiano

Tab de baixo: Versão 2
intro e versos
g------------------7--------------------5-------------------------------------------------------
d---------------7-----7--------------5-------5-----------------5-----------------------5--------
a---5---x--5-------------3-----x--3-------------------------5-----5--------------5----------5---
e-----------------------------------------------3----x--3-------------3-x-3---------------------
refrão só com uma pequena variação com a corda mi na parada envez de vc entrar com um slid entra com duas vezes a mi solta mas só n primeira vez
g---------------7---------------5---------------------------------------------
d------------7----7-----------5-----5------------5---------------------5------
a-----5-x-5-----------3-x-3-------------------5-----5-------------5--------5--
e-00-----------------------------------3-x-3------------3--x-3----------------

um pouco antes do solo n parte "ti amo de qualquer jeito"

g----------7-----------------------------------------------------
d--------7-----7-------------------------------------5-----------
a-5-x-5-----------5---------------------------5---------------5--
e---------------------7--6--5--3----3--x-3-----------------------

ai vai o solo

depois n parete nosso caso eh marcado
g--------------------------------------------
d--------------------------------------------
a-5-5-5----3-3--3------5---7---5--7--5-------
e-------------------3------------------------
Compositor não encontrado.
Colaboração e revisão:
  • Hector rigon
10.937 exibições

0 comentários

Ver todos os comentários
00:00 / 00:00
Outros vídeos desta música
Repetir Qualidade Automático
Outros vídeos desta música
00:00 / 00:00
Automático

Cifra Club Pro

Aproveite o Cifra Club com benefícios exclusivos e sem anúncios
Cifra Club Pro
Aproveite o Cifra Club com benefícios exclusivos e sem anúncios
OK