Cifra Club

Palavras de Amor

César Menotti e Fabiano

Cifra: Principal
exibições 138.526
Tom: G
[Intro]  G  D  C  G

E|----------------------------------------------------------------------------|
B|---------10--12--10------10----12--12--10--8--------12--10------10--12--12--|
G|--9--12--------------12-----------------------9-------------12--------------|
D|----------------------------------------------------------------------------|
A|----------------------------------------------------------------------------|
E|----------------------------------------------------------------------------|

E|---------------------------------------------------10--8---7--8---7--7--|
B|---------10--12--10--8--10----12--12--10--8--------12--10--8--10--8--8--|
G|--9--12--------------------------------------9--------------------------|
D|------------------------------------------------------------------------|
A|------------------------------------------------------------------------|
E|------------------------------------------------------------------------|

E|---------------------------------------|
B|--3h5p3--------------------------------|
G|---------5--4--------------------------|
D|---------------------------------------|
A|---------------------------------------|
E|---------------------------------------|

 G            D
Palavras de amor
 C          G
Jogadas ao vento
      D
Sua imagem
 C                   G
Não sai do meu pensamento
                      D
Ninguem me tira essa dor
 C                G
Nem as marcas do tempo
                    D
O que me falta é coragem
                C
Pra dizer a verdade
                 G
E enfrentar o momento

             D
Só queria dizer pra você
       C               G
Que te amo e não vejo saída
                 D
Nosso caso é marcado
                C
Nosso amor é jurado
              G
Você é minha vida
                D
Vê se volta correndo pra mim
       C                 G
Sem você eu não durmo direito
                      D
Quero estar em seus braços
              C
E ouvir de você
                    G
Te amo de qualquer jeito
Acordes para:
    Composição: César Menotti / FabianoColaboração e revisão:

    0 comentários

      mostrar mais comentários

      Conseguiu tocar?

      18tocaram1ainda não

      Grave um vídeo tocando Palavras de Amor e mande pra gente!

      00:00 / 00:00
      outros vídeos desta música
      repetirqualidadeAutomático
      Outro vídeos desta música
        00:00 / 00:00
        OK