Cifra Club

Se Fosse Eu

César Menotti e Fabiano

Cifra: Principal
exibições 110.724
Tom: D
Intro: D Em D/F# G D A Em D/F# G D A7

E|--14-12-10-----14-12-10-------------------------------------|
B|----------12-----------12--12-12-14-15-15-10-10-10-8-7------|
G|------------------------------------------------------9-----|
D|------------------------------------------------------------|
A|------------------------------------------------------------|
E|------------------------------------------------------------|

2ª Parte

E|-14-12-10-----14-12-10--------------------14-14-14-12-10-12-|
B|----------12----------12--12-12-14-15-15--------------------|
G|------------------------------------------------------------|
D|------------------------------------------------------------|
A|------------------------------------------------------------|
E|------------------------------------------------------------|

          D
Se fosse eu,
                                   A
Não faria as coisas que esse cara faz
                            Bm
Andava na linha, te curtia mais
         G            A
A prioridade era só você
         D
Se fosse eu,
                                A/C#
Faria questão de andar de mãos dadas,
                          Bm
Pra fazer inveja na rapaziada
                            F#m
Me orgulhava tanto de te merecer
         Em
Se fosse eu,
                 D/F#    G
Minha alegria era te alegrar
                               D
Não tinha tristeza nesse seu olhar
                                  A
Me virava em dois pra te fazer sorrir
         Em
Se fosse eu
                        D/F#     G
Contava os segundos pro fim de semana
                        D
Te levava numa balada bacana
                                A
Pra ficar juntinhos pra se divertir
         G/B   A/C#  A7
Se fosse eu...

D          A/C#  Bm
Pensa direito, respira fundo,
     G                          A        D/A    A7
Vou fazer de você a mulher mais feliz do mundo
D          A/C#  Bm        Bm/A
Pensa direito, fica comigo,
     G                          A          D
Meu amor é muito grande pra ser só seu amigo

(Repete tudo)

D#         Bb/D  Cm
Pensa direito, respira fundo,
     G#                                  D#/Bb     Bb7
Vou fazer de você a mulher mais feliz do mundo
D#         Bb/D  Cm        Cm/Bb
Pensa direito, fica comigo,
     G#                         Bb      G#     D#
Meu amor é muito grande pra ser só seu amigo
Acordes para:

    0 comentários

      mostrar mais comentários

      Conseguiu tocar?

      16tocaram0ainda não

      Grave um vídeo tocando Se Fosse Eu e mande pra gente!

      00:00 / 00:00
      outros vídeos desta música
      repetirqualidadeautomática
      Outro vídeos desta música
        00:00 / 00:00
        automática
        OK