Cifra Club

De Amarillo Y Gris

Chancho En Piedra

Cifra: Principal (violão e guitarra)
tom: C
Intro:
E|-------------------------------------
B|------------------3------------------
G|------------------2------------------
D|------------------3------------------
A|-7---5h7-5-6--3-2-2-------3--------3-
E|-5---------4--------3-2-1--1-3h5-----

E|-------------------------------------
B|-------------------------------------
G|-------------------------------------
D|-------------------------------------
A|-7---5h7-5-5---5h7-5-4---5--4--3-----
E|-5---------3---------2---3--2--1-----

C                     A#                        Am         F - G#
Mes de abril ya las calles se han vestido de amarillo y gris
C               A#                    Am          F - G#
por aquí aun recorres los pasillos de mi existir
Dm           E                Am  D7
porque no pudimos ni despedirnos
Dm           E           Am
fue tan repentino tu adiós
         D7              Am           A7
que me cuesta asumirlo (oooh oooh)

Dm        A
Solo quiero decir
Dm
que te extraño a mil

C                 A#               A                    F - G#
Sabes bien, tu llegada a mi vida lleno mis días de alegría
C                   A#                   A                     F - G#
conjunción de dos almas parecidas nuestras miradas se comprendían
Dm                E             Am  D7
no fue necesario hablar para saber 
Dm              E                  Am
que el tiempo compartido fue el mejor
          D7          Am               A7
que he tenido y el mejor que tú has vivido

Dm        A
Solo quiero decir
Dm                C
que te extraño a mil
      G           F
y tu luz no se apaga

E|-------------------------------------
B|------------------3------------------
G|------------------2------------------
D|------------------3------------------
A|-7---5h7-5-6--3-2-2-----3--------3---
E|-5---------4--------3-2-1--1-3h5-----
Perdona mis errores me equivoco, soy un hombre
E|--------------------------------------
B|------------------3-------------------
G|------------------2-------------------
D|------------------3-------------------
A|-7---5h7-5-6--3-2-2----3------3--5--3-
E|-5---------4-------3-2-1--3-5---------
no estuve más tiempo contigo recordarlo es un castigo
E|-------------------------------------
B|------------------3------------------
G|------------------2------------------
D|------------------3------------------
A|-7---5h7-5-6--3-2-2-----3--------3---
E|-5---------4--------3-2-1--1-3h5-----
te sueño y grito tu nombre fuiste luz, fuiste fiel, fuiste noble
E|-------------------------------------
B|-------------------------------------
G|-------------------------------------
D|-------------------------------------
A|-7---5h7-5-5---5h7-5-4---5--4--3-----
E|-5---------3---------2---3--2--1-----
te extraña hasta el paisaje este es mi humilde homenaje

Solo: C A# Am F G# x2
      Dm E Am D7
      Dm E Am D7 Am A7

Dm        A
De amarillo y gris
Dm        A
se pinta mi jardín
Dm        A
solo quiero decir
Dm                C
que te extraño a mil
      G           F
y tu luz no se apaga

E|-------------------------------------
B|------------------3------------------
G|------------------2------------------
D|------------------3------------------
A|-7---5h7-5-6--3-2-2-----3--------3---
E|-5---------4--------3-2-1--1-3h5-----
Perdona mis errores me equivoco, soy un hombre
E|--------------------------------------
B|------------------3-------------------
G|------------------2-------------------
D|------------------3-------------------
A|-7---5h7-5-6--3-2-2----3------3--5--3-
E|-5---------4-------3-2-1--3-5---------
no estuve más tiempo contigo recordarlo es un castigo
E|-------------------------------------
B|------------------3------------------
G|------------------2------------------
D|------------------3------------------
A|-7---5h7-5-6--3-2-2-----3--------3---
E|-5---------4--------3-2-1--1-3h5-----
te sueño y grito tu nombre fuiste luz, fuiste fiel, fuiste noble
E|-------------------------------------
B|-------------------------------------
G|-------------------------------------
D|-------------------------------------
A|-7---5h7-5-5---5h7-5-4---5--4--3-----
E|-5---------3---------2---3--2--1-----
te extraña hasta el paisaje este es mi humilde homenaje
00:00 / 00:00
Outros vídeos desta música
Repetir
Outros vídeos desta música
Compositor não encontrado.
Colaboração e revisão:
  • Leonardo Palapapairicoipi
1.219 exibições
    • ½ Tom
    • A
    • Bb
    • B
    • C
    • Db
    • D
    • Eb
    • E
    • F
    • F#
    • G
    • Ab
  • Adicionar à lista

    0 comentários

    Ver todos os comentários

    Conseguiu tocar?

    1 Tocaram 0 Ainda não

    Grave um vídeo tocando De Amarillo Y Gris e nos envie!

    Entre para oCifra Club PRO

    Tenha acesso a benefícios exclusivos no App e no Site

    • Chega de anúncios

    • Prioridade de compra em lançamentos

    • Mais recursos no app do Afinador

    • Atendimento Prioritário

    • Descontos nos produtos Cifra Club

    • Ajude a produzir mais conteúdo

    00:00 / 00:00

    Cifra Club Pro

    Aproveite o Cifra Club com benefícios exclusivos e sem anúncios
    Cifra Club Pro
    Aproveite o Cifra Club com benefícios exclusivos e sem anúncios
    OK