Cifra Club

Eligiendo una reina

Chancho En Piedra

Cifra: Principal (violão e guitarra)
tom: E
E|---------------------|-----------------|----------------|
B|---------------------|-----------------|----------------|
G|---------------------|-----------------|----------------|
D|---------------------|-----------------|----------------|
A|---------------------|-----------------|---6/7-6/7------|
E|-0-3-5-6-5-0-3-0-0-3-|-5-3-5-6-5-0-3-0-|-3--------------|

E|-----------------|-------------|--------------------|
B|-----------------|-------------|--------------------|
G|-----------------|-------------|--------------------|
D|-----------------|-------------|--------------------|
A|-----------------|-------------|-3-3-2-2--3-2-------|
E|-0-3-5-6-5-0-3-0-|-5-6-3-5-3-0-|--------------5-3-0-|


Bm                           Fm 
Queremos ver las reinas del mañana
Bm                  Fm    Ebm 
con bikini toda la semana
Bm                     Fm 
debe tener carita de muñeca
F#         A#            B       4°cuerda 9-7
Desde niña hacer dieta para su silueta


Debe tener desplante al hablar
y si es que gana se debe emocionar
ser nuestra cara en el extranjero
Dejando bien en clñaro que en Chile hay buen cuero

CORO

Al ganar sera sensacion
de las revistas y al television
pieza clave de los estelares
Dira que le gustan los niños y animales

Se creera toda una artista
pololeara con futbolista
solo dira lo justo y necesario
Todo lo que haga debe salir en el diario

Coro
Solo de guitarra
E|------------------|-------------------------|----------------|----------------|
B|------------------|-------------------------|----------------|----------------|
G|------------------|-------------------------|----------------|----------------|
D|------12-------11-|----11-12-12/13-12-11-12-|----12-------11-|----------------|
A|---13----13-12----|-12----------------------|-13----13-12----|-13-13-12-------|
E|------------------|-------------------------|----------------|----------12----|

E||-------------------|-------------------------|
B||-------------------|-------------------------|
G||-------------------|-------------------------|
D||-------12-------11-|----11-12-12/13-12-11-12-|
A||----13----13-12----|-12----------------------|
E||-------------------|-------------------------|    

E|------------------|------------------------|
B|------------------|------------------------|
G|------------------|------------------------|
D|------12-------11-|----11-12-14-14-12-11---|
A|---13----13-12----|-12---------------------|
E|------------------|------------------------|

Coro

Podremos ver su par de buenas tetas
promocionando productos de belleza
su matrimonio sera fenomenal
Estara invitado todo nuestro jet set nacional

En el futuro sera animadora
ojala que a vieja llegue seductora
a los cuarenta se hara la cirujia
Su pega es ser rica para toda nuestra vida

Coro
E||-------------------|-------------------------|
B||-------------------|-------------------------|
G||*------------------|-------------------------|
D||*------12-------11-|----11-12-12/13-12-11-12-|
A||--//13----13-12----|-12----------------------|
E||-------------------|-------------------------| 

E|------------------|------------------------| ¡
B|------------------|------------------------| ¡
G|------------------|------------------------| ¡
D|------12-------11-|----11-12-14-14-12-11---| ¡
A|-//13----13-12----|-12---------------------| ¡
E|------------------|------------------------| ¡
00:00 / 00:00
Outros vídeos desta música
Repetir
Outros vídeos desta música
Compositor não encontrado.
187 exibições
    • ½ Tom
    • A
    • Bb
    • B
    • C
    • Db
    • D
    • Eb
    • E
    • F
    • F#
    • G
    • Ab
  • Adicionar à lista

    0 comentários

    Ver todos os comentários

    Conseguiu tocar?

    0 Tocaram 0 Ainda não

    Grave um vídeo tocando Eligiendo una reina e nos envie!

    Entre para oCifra Club PRO

    Tenha acesso a benefícios exclusivos no App e no Site

    • Chega de anúncios

    • Prioridade de compra em lançamentos

    • Mais recursos no app do Afinador

    • Atendimento Prioritário

    • Descontos nos produtos Cifra Club

    • Ajude a produzir mais conteúdo

    00:00 / 00:00

    Cifra Club Pro

    Aproveite o Cifra Club com benefícios exclusivos e sem anúncios
    Cifra Club Pro
    Aproveite o Cifra Club com benefícios exclusivos e sem anúncios
    OK