Cifra Club

Aquela Paz

Charlie Brown Jr.

Cifra: Principal
exibições 400.173
Tom: C# (com acordes na forma de D) Afinação: Eb Ab Db Gb Bb Eb
Intro:

Riff 1:

     E                                 G#                     D#
E|-------------------------------------------------------------------------------|
B|-------------------------------------------------------------------------------|
G|----------0-----0---------0--------------------0-------0-------------0---------|
D|------3-----3---------3-----3---3---------7-------7-------------9-------9----9-|
A|----3---3-----3-----3---3-----3--------7-----7-------7-------10---10------10---|
E|--1---------------1-----------------5----------------------0-------------------|
                                                       ___

Riff 2:

E|------------------0--------------------|
B|-----0-------0----0----0------0--------|
G|-------0-------0--0------0------0---0--|
D|--9-------9-------9--------9------9----|
A|--7-------9------ 10-------------------|
E|--0-------0-------0--------------------|


(Riff 2)

A Vida é feita de atitudes nem sempre descentes

não lhes julgam pela razão mas pelo seus antecedentes
E                                                        G#
É quando eu volto a me lembrar do que eu pensava nem ter feito
       D#
Vem me traz aquela paz
E                                                G#
Você procura a perfeição, eu tenho andado sobre efeito
            D#
posso te dizer que já não aguento mais
E                                              G#
Desencana não vou mudar por sua causa não tem jeito
             D#                            E           G#   D#
Quem é que decide o que é melhor pra minha vida agora?

(Riff 2)

     D#              F             F#
Ouvi dizer que só era triste quem queria
       D#              F             F#    2x
Ouvi dizer que só era triste quem queria

(Riff 1)

E
Lidei com coisa que jamais entenderei
G#                         D#
Ah, se eu pudesse estar em paz,
                   E
me livrar do pesadelo de vê-lo nesse estado
                 G#       D#
e não poder ajudá-lo, não
E                                           G#          D#
Triste é poder mudar, porque estais tão revoltado irmão

(Riff 2)

       D#              F             F#
Ouvi dizer que só era triste quem queria
       D#              F             F#    2x
Ouvi dizer que só era triste quem queria

Solo:

E|------------------------------------------------------------------2-2-2-2-2-2-
B|------------10/12----5-8--------------------------------2-2-2-2-2-------------
G|----------9--------------7--9p7---------------3-3-3-3-3-----------------------
D|--9-10-12-----------------------9----3-3-3-3-3--------------------------------
A|------------------------------------------------------------------------------
E|------------------------------------------------------------------------------

E|--8h10p8-7--------------------------------------------------------------^^---|
B|-----------8h10-8-----8-------------------8/10-8/10---------------------11---|
G|--------------------5----5-7-5--9-7-5---5------------5-7-5--9-7-5--5/10------|
D|-----------------------------------------------------------------------------|
A|-----------------------------------------------------------------------------|
E|-----------------------------------------------------------------------------|


(Riff 2)

       D#              F             F#
Ouvi dizer que só era triste quem queria
       D#              F             F#    2x
Ouvi dizer que só era triste quem queria

(Riff 2)

A Vida é feita de atitudes descentes

não lhes julgam pela razão, mas pelo seus antecedentes!

Cuidado com seus passos!
Acordes para:
    Composição: Charlie Brown Jr.Colaboração e revisão:

    0 comentários

      mostrar mais comentários

      Conseguiu tocar?

      20tocaram4ainda não

      Grave um vídeo tocando Aquela Paz e mande pra gente!

      00:00 / 00:00
      outros vídeos desta música
      repetirqualidadeautomática
      Outro vídeos desta música
        00:00 / 00:00
        automática
        OK