Enviar cifraEntrar

Be Myself

Charlie Brown Jr.

Cifra: Principal
exibições 89.595
Tom: D
Intro: Riff 1


Eb|---------------------------------------------|
Bb|---------------------------------------------|
Gb|--2------------2-------------------------2-2-|
Db|----4-2-0-2h4----4-2-0-2h4-2-2-2-2-2-0--0-0-0|
Ab|-2-2-2-2-0-----------------------------------|
Eb|--------------3-3-3-3-3---0-0-0-0-0----3-----|


Base: Bm  Bb9  Bm  G  D11/G  G  Bm5+  G  D11/G  G

Verso:
Mas o que pode se esperar de uma pessoa que não pode    (Riff 1)
sonhar

Como ele pode ter o que ele está tão longe!
Na vitrine coisas que ele nunca vai poder ter         
Se ninguém o ajudar o que ele vai fazer?              
Onde vai morar e o que vai ser quando crescer?       
                                                      
Quando vem da rua,                                    
que é sua, que é minha, que é de ninguém              
É tudo uma ilusão e você sabe muito bem               
                                                      
Impunidade, hipocrisia, dançam de mãos dadas          
O hino nacional de uma nação condenada                

(Riff 1)
A sociedade prega o bem                    
Mas o sistema só alimenta o que é mal             
Se a nossa cara é prosperar,               
o povo tem que evoluir também             

Quase de manhã, mais uma noite no vazio              
me auto-desafio, lá fora o mundo louco               
sem perdão nem compaixão                             
                                                     
A combustão em rota de colisão                       
A sinfonia da destruição                             
Vivendo o sonho e também o pesadelo                  
Vendo o mundo regredindo entre a fé e o dinheiro     
Saudades do meu pai e dos amigos que morreram        
Mas o que o velho me ensinou eu jamais me esqueço    
Seja lá como for, na vida tudo tem seu preço         
                                                     
No mundo, o falso e o verdadeiro se confundem       
Mas os que sabem jamais se iludem                    
Não é fácil encontrar o caminho                      
Mas é bom olhar pro lado e ver que não estou sozinho...

Refrão:

  Bm                   G    D11/G G
Todo o mal que é dirigido a nós
             Bm5+
Nos fortalece e eu não vou desistir
           G       D11/G  G
(O que vale nessa vida é o que se vive é o que se faz)

  Bm                     G D11/G G
Nas armadilhas que eu cai
           Bm5+
Eu fiquei só e ninguém viu
       G          D11/G G
(O que vale nessa vida é o que se vive é o que se faz)

Verso 2: Riff 1
O que pode se esperar de um ser humano perdido?    
Que ele viva como nunca fosse morrer?              
Ou que ele morra como nunca tivesse vivido?        
O que pode se esperar de uma pessoa que não pode   
sonhar                                             
                                                   
I wanna think about tomorrow                       
'Cause tomorrow I want to be with you              
Don't wanna live in quite sorrow                   
Oh that's the way the world will follow            
                                                   
And so it in my mind                               
Just wanna be myself for sometimes                 
Just wanna be myself                               

Acostumado desde cedo com a desgraça             
em temporada de caça, um subnutrido              
vítima da farsa, se formou na escola do crime    
hoje o oprimido é quem oprimi                    
                                                  
Uma alma carregada de ódio e amor                 
Mas muito mais ódio que amor                      
O aluno e também o professor                      
que ensina qualquer um que não sabe dar valor     
à vida que tem ou à casa que mora                 
que vive sorrindo enquanto ele chora              
                                                  
Só mais um de milhares que se espalham            
vítima dos nossos governantes que falharam        

Refrão:

  Bm                       G D11/G G
Todo o mal que é dirigido a nós
            Bm5+
Nos fortalece e eu não vou desistir
           G      D11/G G
(O que vale nessa vida é o que se vive é o que se
faz)
  Bm                     G D11/G G
Nas armadilhas que eu cai
           Bm5+
Eu fiquei só e ninguém viu
       G          D11/G G
(O que vale nessa vida é o que se vive é o que se
faz)

Solo:


Eb|----------------------|------------------|
Bb|--5b7~~--3b5~~--8b10~~|--5b7~~--3b5~~----|
Gb|----------------------|--------------2/4-|
Db|----------------------|------------------|
Ab|----------------------|------------------|
Eb|----------------------|------------------|


Alteração:


Eb|-----------------------------------------|----------------------------------|
Bb|--5b7~~--3b5~~--8b10~~8b10r8b10r8--------|--5b7~~--3b5~~--10b12-------------|
Gb|-----------------------------------------|----------------------------------|
Db|-----------------------------------------|----------------------------------|
Ab|-----------------------------------------|----------------------------------|
Eb|-----------------------------------------|----------------------------------|


Base do solo acima: Bm  G  Bm5+  G
                    Bm  G  Bm5+  G

A5  D5     F#         Bm
   I Just wanna be myself..

Riff 3:


Eb|----------------------------|
Bb|2h3p2-----------------------|
Gb|-----2h4-2------------------|
Db|----------2h4-2-------------|
Ab|----------------------------|
Eb|----------------------------|


Eb|------------------------------|
Bb|------------------------------|
Gb|-----------------4------------|
Db|--6h7-6h7-6h7-6h7---2h4-2h4-2-|
Ab|------------------------------|
Eb|------------------------------|


Eb|--9h10p9\7-----------9h10p9\7--10-9h10p9\7--7/9------|
Bb|-----------------3------------------------------10/12|
Gb|-------------4/6-------------------------------------|
Db|-----------------------------------------------------|
Ab|-----------------------------------------------------|
Eb|-----------------------------------------------------|


Eb|------------------------------|
Bb|------------------------------|
Gb|------2h4-4-------------------|
Db|--2h4---------2h4p2p0---------|
Ab|----------------------2-------|
Eb|------------------------------|


Yeah! Yeah! Play in your position
'Cause the world does the man
Little kids visions
Be my sins, be forgiven
Gotta have facing
You could do what you wanna do
Gotta be this way So don't fool
'Cause the world is Cruel?
Live by the sword than you die by the sword
When I'm asking for peace in the middle of a war
Between blacks and whites, between rich and poor
So we can stop the mess overseas the ???

Trabalho muito, vivo a vida, skateboard estilo de
vida
um brilho intenso e a humildade de uma mente evoluída.
  • 1
  • 2
  • 3
  • 4
  • 5
  • 6
  • 7
  • 8
  • 9
  • 10
  • 11
  • 12
    Acordes para:
      Composição: Chorão e Thiago CastanhoColaboração e revisão:
      • Mateus
      • Tilynha
      • lucas

      0 comentários

        mostrar mais comentários

        Conseguiu tocar?

        3tocaram0ainda não

        Grave um vídeo tocando Be Myself e mande pra gente!

        00:00 / 00:00
        outros vídeos desta música
        repetirqualidadeautomática
        • automática
        Outro vídeos desta música
          00:00 / 00:00
          automática
          • automática
          Acordes para:violão e guitarra
          dificuldadeexibiçõescontribuições
          fecharplay/pause subir/descer velocidade
            acordes
            fechar
            OK
            Feedback