Cifra Club

Céu Azul

Charlie Brown Jr.

Tab de baixo: Principal
    Em7(9)          D
E|------------------------------------------|
B|------------------------------------------|
G|----12---12---------12-------12-12--------|
D|----13---13---------13-------13-13--------|
A|------------------------------------------|
E|--0----0----0----11----11-11-------0------|


2ª parte:


    Bm           A11
E|------------------------------------------|
B|------------------------------------------|
G|----8---8--------7-----8-7----------------|
D|----0---0--------0---------0--------------|
A|------------------------------------------|
E|--8---8---0----6---6-6-------0------------|
exibições 15.252
Composição: Chorão / Thiago Castanho Colaboração e revisão:
  • mc bolado

0 comentários

mostrar mais comentários
00:00 / 00:00
outros vídeos desta música
repetir qualidade Automático
Outros vídeos desta música
00:00 / 00:00
Automático
OK