Cifra Club

Chicanos (Skate Nos Canos)

Charlie Brown Jr.

Cifra: Principal
exibições 47.154
Tom: D
Esta música é loca . É tipo uma flamenca . Se você escutar a música fica fácil de tirar . Se não escutar
vai ser foda tirar. Ela é tocada bem rápida até dói os dedo. Caso tenham alguma duvida me mandem um e-mail porra.



rock na veia dos irmão .. pi-qui-ti-piu- ieeeee


primeira parte-
-------------------------------------------------------------------------------------------------------------------------------
-------------------------------------------------------------------------------------------------------------------------------
-----------------------------------------------------------------------------------------------------------------7 S 9--------
-----------------------------------------------------------------------------------------------9-------9--9--7---------------
-8---------------------------------|-8--10--12-|----------------------10------10--8--10--8----8--7------------------------
----10--8--10--8--10--8--7------|------------ |-----8--7-------8 L 7-----7-------------------------------------------------
                                                     |     3 x         |

8 L 7 - É um ligado do 8 pro 7
S 9 - É um slide do pro 9


segunda parte-
--------------------------------------------------------------------------------------------------------------------------------
--------------------------------------------------------------------------------------------------------------------------------
--------------------------------------------------------------------------------------------------------------------------------
--------------------------------------------------------------------------------------------------------------------------------
-|-7-8-9-|----------10------------------------10--10--10------7--8--10--8--10-----10------------------------------10------ 
-|--------|---8--7-------7--10--8--7--8--7----------------7----------------------9-------9-10-9-10-10-10-8-7-8-7-----7--
  |   4 x   |
Acordes para:

    0 comentários

      mostrar mais comentários

      Conseguiu tocar?

      3tocaram1ainda não

      Grave um vídeo tocando Chicanos (Skate Nos Canos) e mande pra gente!

      00:00 / 00:00
      outros vídeos desta música
      repetirqualidadeautomática
      Outro vídeos desta música
        00:00 / 00:00
        automática
        OK