Cifra Club

Aprenda

Descubra o Que Há de Errado Com Você

Charlie Brown Jr.

Tab de baixo: Principal
(11)= número onze

G |------------------------------------------------------------------------------------------|
D |---------------------------------5h7h5h7h5h7h5--------------------------------------------|
A |-----------------4-4-4-4444-4-4-----------------7-7-7-7777-7-7-99-(11)-9------------------| 1X
D#|-2-2-2-2222-2-0---------------------------------------------------------------------------| 

G |------------------------------------------------------------------------------------------|
D |------------------------------------------------------------------------------------------|
A |-----------------4-4-4-4444-4-4-----------------7-7-7-7777-7-7-99-(11)-9------------------| 1X
D#|-2-2-2-2222-2-0------------------5-5-5-5555-5-5-------------------------------------------| 

G |--888-3h5---------------------------------------------------------------------------------|
D |------------------------------------------------------------------------------------------| 14X
A |------------------------------------------------------------------------------------------|
D#|------------------------------------------------------------------------------------------| 

G |------------------------------------------------------------------------------------------|
D |-1-1-1-1111-1-1---------------------------------------------------------------------------|
A |------------------------------------------------------------------------------------------| 1X
D#|------------------------------------------------------------------------------------------|

G |------------------------------------------------------------------------------------------|
D |------------------------------------------------------------------------------------------|
A |-----------------4-4-4-4444-4-4-----------------7-7-7-7777-7-7-99-(11)-9------------------| 1X
D#|-2-2-2-2222-2-0------------------5-5-5-5555-5-5-------------------------------------------| 

G |------------------------------------------------------------------------------------------|
D |------------------------------------------------------------------------------------------|
A |-----------------4-4-4-4444-4-4-----------------7-7-7-7777-7-7-99-(11)-9------------------| 1X
D#|-2-2-2-2222-2-0------------------5-5-5-5555-5-5-------------------------------------------| 

G |--888-3h5---------------------------------------------------------------------------------|
D |------------------------------------------------------------------------------------------| 14X
A |------------------------------------------------------------------------------------------|
D#|------------------------------------------------------------------------------------------| 

G |------------------------------------------------------------------------------------------|
D |-1-1-1-1111-1-1---------------------------------------------------------------------------|
A |------------------------------------------------------------------------------------------| 1X
D#|------------------------------------------------------------------------------------------|

G |------------------------------------------------------------------------------------------|
D |------------------------------------------------------------------------------------------|
A |-----------------4-4-4-4444-4-4-----------------7-7-7-7777-7-7-99-(11)-9------------------| 1X
D#|-2-2-2-2222-2-0------------------5-5-5-5555-5-5-------------------------------------------| 

G |------------------------------------------------------------------------------------------|
D |------------------------------------------------------------------------------------------|
A |-----------------4-4-4-4444-4-4-----------------7-7-7-7777-7-7-99-(11)-9------------------| 1X
D#|-2-2-2-2222-2-0------------------5-5-5-5555-5-5-------------------------------------------| 

G |------------------------------------------------------------------------------------------|
D |------------------------------------------------------------------------------------------|
A |-8-6-4-3-1--------------------------------------------------------------------------------| 4X
D#|------------2-2-2-0--2-2-2-0--2-2-2-0-----------------------------------------------------| 

TERMINA COM 0 (deixe soar)

Colaboração e revisão:
  • blanka
1.650 exibições

0 comentários

Ver todos os comentários

Conseguiu tocar?

0 Tocaram 0 Ainda não

Grave um vídeo tocando Descubra o Que Há de Errado Com Você e nos envie!

00:00 / 00:00
outros vídeos desta música
repetir qualidade Automático
Outros vídeos desta música
00:00 / 00:00
Automático

Cifra Club Pro

Aproveite o Cifra Club com benefícios exclusivos e sem anúncios
Cifra Club Pro
Aproveite o Cifra Club com benefícios exclusivos e sem anúncios
OK