Cifra Club

Aprenda

Lugar Ao Sol

Charlie Brown Jr.

Tab de baixo: Versão 2
Já pensou em usar uma coleção de roupas do Cifra Club? Responda as perguntas abaixo e nos ajude nessa missão! →
Champignon(Baixo)


      W                   W                   W                 
F#||-------------------|-------------------|-------------------|
C#||-------------------|-------------------|-------------------|
G#||-------------------|-------------------|--6----------------|
D#||--3----------------|--1----------------|-------------------|


  W                   W                   W                   W                 
-------------------|-------------------|-------------------|-------------------|
-------------------|-------------------|-------------------|-------------------|
--6----------------|-------------------|-------------------|--6----------------|
-------------------|--3----------------|--1----------------|-------------------|


                      S                         S                       
  W                   Q    E  E  E  E  E  E     Q    E  E  E  E  E  E   
-------------------|-------------------------|-------------------------|
-------------------|-------------------------|-------------------------|
--6----------------|-------------5--3--1-----|----------------1--3--5--|
-------------------|--3----3--3-----------3--|--1----1--1--3-----------|


  S                         S                         S                       
  Q    E  E  E  E  E  E     Q    E  E  E  E  E  E     Q    E  E  E  E  E  E   
-------------------------|-------------------------|-------------------------|
-------------3--5--7--5--|-------------------------|-------------------------|
--6----6--6--------------|--6----6--6--4--3--------|-------------5--3--1-----|
-------------------------|-------------------6--5--|--3----3--3-----------3--|


  S                         S                         S                       
  Q    E  E  E  E  E  E     Q    E  E  E  E  E  E     Q    E  E  E  E  E  E   
-------------------------|-------------------------|-------------------------|
-------------------------|-------------3--5--7--5--|-------------------------|
----------------1--3--5--|--6----6--6--------------|--6----6--6--4--3--------|
--1----1--1--3-----------|-------------------------|-------------------6--5--|


  S                         S                         S                       
  Q    E  E  E  E  E  E     Q    E  E  E  E  E  E     Q    E  E  E  E  E  E   
-------------------------|-------------------------|-------------------------|
-------------------------|-------------------------|-------------3--5--7--5--|
-------------5--3--1-----|----------------1--3--5--|--6----6--6--------------|
--3----3--3-----------3--|--1----1--1--3-----------|-------------------------|


  S                         S                         S                       
  Q    E  E  E  E  E  E     Q    E  E  E  E  E  E     Q    E  E  E  E  E  E   
-------------------------|-------------------------|-------------------------|
-------------------------|-------------------------|-------------------------|
--6----6--6--4--3--------|-------------5--3--1-----|----------------1--3--5--|
-------------------6--5--|--3----3--3-----------3--|--1----1--1--3-----------|


  S                    S                         S                      
  H        H           Q    E  E  E  E  E  E     Q    E  Q    E  E  E   
--------------------|-------------------------|------------------------|
-----------8--------|----------------3--5--7--|------------------------|
--6-----------------|--6----6--6--6-----------|---------------8--6--5--|
--------------------|-------------------------|--6----6--6-------------|


                                                     S                      
  Q    E  E  E  E  E  E     Q    E  Q    E  E  E     Q    E  Q    E  E  E   
----------------7--7--7--|------------------------|------------------------|
--7----7--7--7-----------|---------------3--------|------------------------|
-------------------------|------------------6--3--|---------------8--6--5--|
-------------------------|--3----3--3-------------|--6----6--6-------------|


  Q    E  E  E  E  E  E     Q    E  E  E  E  E  E     E  E  E  E  E  E  E  E   
----------------7--7--7--|-------------------------|--------------------------|
--7----7--7--7-----------|-------------------------|--------------------------|
-------------------------|--6----6--6--6--6--6--6--|--8--8--8--8--8--8--8--8--|
-------------------------|-------------------------|--------------------------|


  S                                                                         
  Q    E  Q    E  E  E     Q    E  E  E  E  E  E     Q    E  Q    E  E  E   
------------------------|----------------7--7--7--|------------------------|
------------------------|--7----7--7--7-----------|---------------3--------|
---------------8--6--5--|-------------------------|------------------6--3--|
--6----6--6-------------|-------------------------|--3----3--3-------------|


  S                                                                          
  Q    E  Q    E  E  E     Q    E  E  E  E  E  E     Q    E  E  E  E  E  E   
------------------------|----------------7--7--7--|-------------------------|
------------------------|--7----7--7--7-----------|-------------------------|
---------------8--6--5--|-------------------------|--6----6--6--6--6--6--6--|
--6----6--6-------------|-------------------------|-------------------------|


  E  E  E  E  E  E  E  E    
--------------------------||
--------------------------||
--8--8--8--8--8--8--8--8--||
--------------------------||
Composição de Chorão / Marcão
Colaboração e revisão:
  • Netto Rocha
  • Bruno
13.721 exibições

0 comentários

Ver todos os comentários

Conseguiu tocar?

0 Tocaram 0 Ainda não

Grave um vídeo tocando Lugar Ao Sol e nos envie!

00:00 / 00:00
Outros vídeos desta música
Repetir Qualidade Automático
Outros vídeos desta música
00:00 / 00:00
Automático

Cifra Club Pro

Aproveite o Cifra Club com benefícios exclusivos e sem anúncios
Cifra Club Pro
Aproveite o Cifra Club com benefícios exclusivos e sem anúncios
OK