Cifra Club

Aprenda

Lutar Pelo Que É Meu

Charlie Brown Jr.

Cifra: Principal (violão e guitarra)
tom: A
[Intro]

     D#9  A#m4/F  C#9
E|-----6-----6-----4-----4---------------|
B|------6-----6-----4-----4--------------|
G|-------8-----8-----6-----6-------------|
D|---8------8-----6-----6----------------| (2x)
A|--6------8-----4-----4-----------------|
E|---------------------------------------|

     D#9    A#4 C#9
E|-----6-----6-----4-----4---------------|
B|------6-----6-----4-----4--------------|
G|-------8-----8-----6-----6-------------|
D|---8------8-----6-----6----------------| (2x)
A|--6------8-----4-----4-----------------|
E|---------------------------------------|

A gente passa entender melhor a vida
Quando encontra o verdadeiro amor
Cada escolha uma renuncia isso é a vida
Estou lutando pra me recompor

      D#9    A#4   C#9
E|---------------------------------------|
B|----6------6-----4-----4---------------|
G|-----8------8-----6-----6--------------|
D|--8---8--8---8--6--6--6--6-------------| (2x)
A|-6------8------4-----4-----------------|
E|---------------------------------------|

De qualquer jeito seu sorriso 
Vai ser meu raio de sol
De qualquer jeito seu sorriso 
Vai ser meu raio de sol

[Refrão] F5  G#5  C5  A#5
         F5  G#5  C5  D#5

E|-------------------------------------6--|
B|------------4------4------------4-----6-|
G|---------5---5--3---3---------5----8----|
D|-3---6---5------3-----3---6---5----8----|
A|-3---6---3------1-----3---6---3----6----|
E|-1---4----------------1---4-------------|

O melhor presente Deus me deu
A vida me ensinou a lutar pelo que é meu!
O melhor presente Deus me deu
A vida me ensinou a lutar pelo que é meu!

     D#9   A#5/F   C#5
E|---------------------4--44--------------|
B|---------------------4--44--------------|
G|--8-----8--8--88--6---------------------|
D|--8-----8--8--88--6---------------------|
A|--6-----8---------4---------------------|
E|----------------------------------------|

Então deixa eu te beijar até 
Você sentir vontade de tirar a roupa
Deixa eu aconpanhar esse instinto 
De aventura de menina solta!

      D#9    A#4        C#9
E|----------------------------------------|
B|----6------6-----4-----4----------------|
G|-----8------8-----6-----6---------------|
D|--8----8--8---8--6--6--6--6-------------|
A|-6------8------4-----4------------------|
E|----------------------------------------|

Deixar minha estrela orbitar 
E brilhar no céu da sua boca

     D#9     A#4  C#9
E|-----6-----6-----4-----4----------------|
B|------6-----6-----4-----4---------------|
G|-------8-----8-----6-----6--------------|
D|---8------8-----6-----6-----------------|
A|--6------8-----4-----4------------------|
E|----------------------------------------|

Deixa eu te mostrar que a vida 
Pode ser melhor mais não sendo tão louca!

      D#9    A#4  C#9
E|----------------------------------------|
B|----6------6-----4-----4----------------|
G|-----8------8-----6-----6---------------|
D|--8---8--8---8--6--6--6--6--------------| (2x)
A|-6------8------4-----4------------------|
E|----------------------------------------|

De qualquer jeito seu sorriso 
Vai ser meu raio de sol
De qualquer jeito seu sorriso 
Vai ser meu raio de sol

[Refrão]

E|-------------------------------------6--|
B|------------4------4------------4-----6-|
G|---------5---5--3---3---------5----8----|
D|-3---6---5------3-----3---6---5----8----|
A|-3---6---3------1-----3---6---3----6----|
E|-1---4----------------1---4-------------|

O melhor presente Deus me deu
A vida me ensinou a lutar pelo que é meu!
O melhor presente Deus me deu
A vida me ensinou a lutar pelo que é meu!

[Solo]

E|-----------------------------------------|
B|-----------------------------------------|
G|-7777^7^7^7^7^---------------------------|
D|-xxxxxxxxxxxx----------------------------|
A|-5555^5^5^5^5^---------------------------|
E|-----------------------------------------|

E|-----------------------------------------|
B|-----------------------------------------|
G|--88888888-------------------------------|
D|--88888888-8/10-10-10-10-8~--------------|
A|--66665656-------------------------------|
E|--6666x6x6-------------------------------|

E|-----------------------------------------|
B|------------8886-------------------------|
G|--88888888--8888-------------------------|
D|--88888888-------------------------------|
A|--66665656-------------------------------|
E|--6666x6x6-------------------------------|

E|-----------------------------------------|
B|-11-11-8-8------------/11-8-9-11-8-9-11--|
G|-----------10-10--8-8--------------------| (2x)
D|-----------------------------------------|
A|-----------------------------------------|
E|-----------------------------------------|

E|-----------------------------------------|
B|-----------------------------------------|
G|--88888888-------------------------------|
D|--88888888-8/10-10-10-10-8~--------------|
A|--66665656-------------------------------|
E|--6666x6x6-------------------------------|

E|-----------------------------------------|
B|------------8886-------------------------|
G|--88888888--8888-------------------------|
D|--88888888-------------------------------|
A|--66665656-------------------------------|
E|--6666x6x6-------------------------------|

E|-----------------------------------------|
B|-11-11-8-8------------/11-8-9-11-8-9-11--|
G|-----------10-10--8-8--------------------|
D|-----------------------------------------|
A|-----------------------------------------|
E|-----------------------------------------|

E|-----------------------------------------|
B|-11-11-8-8------------8h11p8--8h11p8-----|
G|-----------10-10--8-8-------8-------8----| (2x)
D|-----------------------------------------|
A|-----------------------------------------|
E|-----------------------------------------|

E|-----------------------------------------|
B|-11-11-8-8------------11-8-9-11-8-9-11---|
G|-----------10-10--8-8--------------------|
D|-----------------------------------------|
A|-----------------------------------------|
E|-----------------------------------------|

Stop.....

E|-----6-----6-----4-----4-----------------|
B|------6-----6-----4-----4----------------|
G|-------8-----8-----6-----6---------------|
D|---8------8-----6-----6------------------| (2x)
A|--6------8-----4-----4-------------------|
E|-----------------------------------------|

(D#9 C#9) Reggaezinho

A gente passa entender melhor a vida
Quando encontra o verdadeiro amor
Cada escolha uma renuncia isso é a vida
Estou lutando pra me recompor

      D#9     Bb4 C#9
E|----------------------------------------|
B|----6------6-----4-----4----------------|
G|-----8------8-----6-----6---------------|
D|--8---8--8---8--6--6--6--6--------------|
A|-6------8------4-----4------------------|
E|----------------------------------------|

De qualquer jeito seu sorriso 
Vai ser meu raio de sol
De qualquer jeito seu sorriso 
Vai ser meu raio de sol

[Refrão]

E|-------------------------------------6-|
B|------------4------4------------4-----6|
G|---------5---5--3---3---------5----8---|
D|-3---6---5------3-----3---6---5----8---| (2x)
A|-3---6---3------1-----3---6---3----6---|
E|-1---4----------------1---4------------|

O melhor presente Deus me deu
A vida me ensinou a lutar pelo que é meu!
O melhor presente Deus me deu
A vida me ensinou a lutar pelo que é meu!

E|-----------------------------------------|
B|-11-11-8-8------------/11-8-9-11-8-9-11--|
G|-----------10-10--8-8--------------------|
D|-----------------------------------------|
A|-----------------------------------------|
E|-----------------------------------------|

E|-----------------------------------------|
B|-11-11-8-8-------------8h11p8--8h11p8----|
G|-----------10-10--8-8--------8--------8--|
D|-----------------------------------------|
A|-----------------------------------------|
E|-----------------------------------------|

E|-----------------------------------------|
B|-11-11-8-8------------11-8-9-11-8-9-11---|
G|-----------10-10--8-8--------------------|
D|-----------------------------------------|
A|-----------------------------------------|
E|-----------------------------------------|

E|-----------------------------------------|
B|-----------------------------------------|
G|--88888888-------------------------------|
D|--88888888-8/10-10-10-10-8~--------------|
A|--66665656-------------------------------|
E|--6666x6x6-------------------------------|

E|-----------------------------------------|
B|------------8886-------------------------|
G|--88888888--8888-------------------------|
D|--88888888-------------------------------|
A|--66665656-------------------------------|
E|--6666x6x6-------------------------------|

E|-----------------------------------------|
B|-----------------------------------------|
G|--88888888-------------------------------|
D|--88888888-8/10-10-10-10-8~--------------|
A|--66665656-------------------------------|
E|--6666x6x6-------------------------------|

E|-----------------------------------------|
B|------------8886-------------------------|
G|--88888888--8888-8~~~~~~-----------------|
D|--88888888-------8~~~~~~-----------------|
A|--66665656-------6~~~~~~-----------------|
E|--6666x6x6-------6~~~~~~-----------------|
Composição de Chorão / Thiago Castanho
911.935 exibições
    • ½ Tom
    • A
    • Bb
    • B
    • C
    • Db
    • D
    • Eb
    • E
    • F
    • F#
    • G
    • Ab
  • Adicionar à lista

    0 comentários

    Ver todos os comentários

    Conseguiu tocar?

    47 Tocaram 8 Ainda não

    Grave um vídeo tocando Lutar Pelo Que É Meu e nos envie!

    00:00 / 00:00
    Outros vídeos desta música
    Repetir Qualidade Automático
    Outros vídeos desta música
    00:00 / 00:00
    Automático

    Cifra Club Pro

    Aproveite o Cifra Club com benefícios exclusivos e sem anúncios
    Cifra Club Pro
    Aproveite o Cifra Club com benefícios exclusivos e sem anúncios
    OK