Notificações Amigos pendentes

      Charlie Brown Jr.

      Não Viva Em Vão

      143.350 exibições
      Tom: A Afinação: Eb Ab Db Gb Bb Eb
      Introdução: Riff 1
      Riff 1 - Parte 1 de 6
      
      E|----------------------------------------------------|
      B|----------------------------------------------------|
      G|----------------------------------------------------|
      D|-11---------14---------11---------14---------11-----|
      A|-0--0-0-0-0-0--0-0-0-0-0--0-0-0-0-0--0-0-0-0-0--0-0-|
      E|----------------------------------------------------|
      
      
      Riff 1 - Parte 2 de 6
      
      E|----------------------------------------------------|
      B|----------------------------------------------------|
      G|----------------------------------------------------|
      D|-14-------------------------------------------------|
      A|-0--0-0---------------------------------------------|
      E|----------------------------------------------------|
      
      
      Riff 1 - Parte 3 de 6
      
      E|----------------------------------------------------|
      B|----------------------------------------------------|
      G|-14---------13---------11---------14---------13-----|
      D|-0--0-0-0-0-0--0-0-0-0-0--0-0-0-0-0--0-0-0-0-0--0-0-|
      A|----------------------------------------------------|
      E|----------------------------------------------------|
      
      
      Riff 1 - Parte 4 de 6
      
      E|----------------------------------------------------|
      B|----------------------------------------------------|
      G|-11-------------------------------------------------|
      D|----0-0---------------------------------------------|
      A|----------------------------------------------------|
      E|----------------------------------------------------|
      
      
      Riff 1 - Parte 5 de 6
      
      E|----------------------------------------------------|
      B|----------------------------------------------------|
      G|-------X---------X---------X---------X---X--X-----X-|
      D|-11----X---14----X---11----X---14----X---11-X--14-X-|
      A|-0-----X---0-----X---0-----X---0-----X---0--X--0--X-|
      E|-------X---------X---------X---------X------X-----X-|
      
      
      Riff 1 - Parte 6 de 6
      
      E|----------------------------------------------------|
      B|---------------X----X-------------------------------|
      G|-14-14-14--13--X-11-X-9---11--11--------------------|
      D|-0--0--0---0---X-0--X-0---0---0---------------------|
      A|----------------------------------------------------|
      E|----------------------------------------------------|
      
      
      Riff 2:
      Riff 2 - Parte 1 de 2
      
      E|----------------------------------------------------|
      B|----------------------------------------------------|
      G|-------6---6-------6-----6--6-----------------------|
      D|-4-4-4-4-4-4-4-4-4-4-4-4-4--4-----------------------|
      A|-5-5-5-5-5-5-5-5-5-5-5-5-5--5--4---4--------2-----2-|
      E|-------------------------------2-0-2--2-4-5---5-4-0-|
      
      
      Riff 2 - Parte 2 de 2
      
      E|----------------------------------------------------|
      B|----------------------------------------------------|
      G|-------6---6-------6-----6--6-----------------------|
      D|-4-4-4-4-4-4-4-4-4-4-4-4-4--4---------------2-------|
      A|-5-5-5-5-5-5-5-5-5-5-5-5-5--5--4---4--------------2-|
      E|-------------------------------2-0-2--2-4-5---5-4-0-|
      
      
      Primeira Parte:
      D5(7M/9)                F#m
               Uma vida sem amor
                         F#m9
      É uma vida sem sentido
      Estarei feliz aonde for
                         D5(7M/9)
      Se você estiver comigo
                         F#m
      A vida já me derrubou
                          F#m9
      A vida já me deu abrigo
      Mas a vida já me situou
      Que a solidão não faz sentido
      Primeira Parte - Parte 1 de 2
      
         D5(7M/9)     F#m
      E|-0----------------------------------------|
      B|-2---5---3----2------2--------------------|
      G|-2---------2--2----2---2------------------|
      D|-0-4---4------4--4------------------------|
      A|------------------------------------------|
      E|------------------------------------------|
      
      
      Primeira Parte - Parte 2 de 2
      
         F#m9
      E|---4-----4-----5-----5--------------------|
      B|-----2-----2-----2-----2------------------|
      G|-------2-----2----------------------------|
      D|-4----------------------------------------|
      A|------------------------------------------|
      E|------------------------------------------|
      
      
      Refrão:
      Riff 2
      Se viver requer coragem então
      Viva para ser feliz e não viva em vão
      Se viver requer coragem então
                                         Riff 3
      Viva para ser feliz e não viva em vão
      
      Riff 3 - Parte 1 de 2
      
      E|-0-0-0---0-0-0-0-0-0--0-0--0-0--0-0-0-0----0--0--0--|
      B|-5-5-5/7-7-7-7-5-5-5--5-5--9-9--9-9-9-9/10-10-10-9--|
      G|----------------------------------------------------|
      D|----------------------------------------------------|
      A|----------------------------------------------------|
      E|----------------------------------------------------|
      
      
      Riff 3 - Parte 2 de 2
      
      E|-0-0-0---0-0-0-0-0-0--0-0--0-0--0-0-0-0----0--0--0-0|
      B|-5-5-5/7-7-7-7-5-5-5--5-5--9-9--9-9-9-9/10-10-10-9-5|
      G|----------------------------------------------------|
      D|----------------------------------------------------|
      A|----------------------------------------------------|
      E|----------------------------------------------------|
      
      
      Riff 4
      Riff 4 - Parte 1 de 2
      
      E|----------------------------------------------------|
      B|----------------------------------------------------|
      G|--11-11---11------13-13---13h14----6-6---6-------9--|
      D|0-------0-------0-------0--------4-----4-----4/7----|
      A|----------------------------------------------------|
      E|----------------------------------------------------|
      
      
      Riff 4 - Parte 2 de 2
      
      E|----------------------------------------------------|
      B|-10-9-----------------------------------------------|
      G|----------------------------------------------------|
      D|----------------------------------------------------|
      A|----------------------------------------------------|
      E|----------------------------------------------------|
      
      
      Riff 5
      Riff 5 - Parte 1 de 4
      
      E|----------------------------------------------------|
      B|-17--17---------------------------------------------|
      G|--------14-14-------14-14-16-16-14-14---------------|
      D|--------------16-16------------------16-16-16-------|
      A|----------------------------------------------------|
      E|----------------------------------------------------|
      
      
      Riff 5 - Parte 2 de 4
      
      E|----------------------------------------------------|
      B|-17--17---------------------------------------------|
      G|--------14-14-------14-14-16-16-14-14------14-------|
      D|--------------16-16------------------16-16----------|
      A|----------------------------------------------------|
      E|----------------------------------------------------|
      
      
      Riff 5 - Parte 3 de 4
      
      E|----------------------------------------------------|
      B|-17--17---------------------------------------------|
      G|--------14-14-------14-14-16-16-14-14------14-------|
      D|--------------16-16------------------16-16----------|
      A|----------------------------------------------------|
      E|----------------------------------------------------|
      
      
      Riff 5 - Parte 4 de 4
      
      E|----------------------------------------------------|
      B|-17--17-------------------15~-----------------------|
      G|--------14-14-------14-14---------------------------|
      D|--------------16-16---------------------------------|
      A|----------------------------------------------------|
      E|----------------------------------------------------|
      
      
      Primeira Parte:
      D5(7M/9)                F#m
               Uma vida sem amor
                         F#m9
      É uma vida sem sentido
      Estarei feliz aonde for
                         D5(7M/9)
      Se você estiver comigo
                         F#m
      A vida já me derrubou
                          F#m9
      A vida já me deu abrigo
      Mas a vida já me situou
      Que a solidão não faz sentido
      
      Refrão:
      Riff 2
      Se viver requer coragem então
      Viva para ser feliz e não viva em vão
      Se viver requer coragem então
                                         Riff 3
      Viva para ser feliz e não viva em vão
      
      Riff 4
      
      Riff 5
      
      Riff 6
      Riff 6 - Parte 1 de 4
      
      E|----------------------------------------------------|
      B|----------------------------------------------------|
      G|---13----14----13----14--13-14-16-------------------|
      D|-0-----0-----0-----0--------------------------------|
      A|----------------------------------------------------|
      E|----------------------------------------------------|
      
      
      Riff 6 - Parte 2 de 4
      
      E|----------------------------------------------------|
      B|----------------------------------------------------|
      G|----13-----14--------13-----14----------------------|
      D|-16-----16-----16-14-----14-----14------------------|
      A|----------------------------------------------------|
      E|----------------------------------------------------|
      
      
      Riff 6 - Parte 3 de 4
      
      E|----------------------------------------------------|
      B|----------------------------------------------------|
      G|---13----14----13----14--13-14-16-------------------|
      D|-0-----0-----0-----0--------------------------------|
      A|----------------------------------------------------|
      E|----------------------------------------------------|
      
      
      Riff 6 - Parte 4 de 4
      
      E|----------------------------------------------------|
      B|----------------------------------------------------|
      G|----14-----14-----14-----13-----13------------------|
      D|-16-----16-----16----14-----14----------------------|
      A|----------------------------------------------------|
      E|----------------------------------------------------|
      
      
      Passagem:
      
      Passagem - Parte 1 de 2
      
      E|----------------------------------------------------|
      B|----------------------------------------------------|
      G|-14---------13---------11---------14---------13-----|
      D|-0--0-0-0-0-0--0-0-0-0-0--0-0-0-0-0--0-0-0-0-0--0-0-|
      A|----------------------------------------------------|
      E|----------------------------------------------------|
      
      
      Passagem - Parte 2 de 2
      
      E|----------------------------------------------------|
      B|----------------------------------------------------|
      G|-11-------------------------------------------------|
      D|----0-0---------------------------------------------|
      A|----------------------------------------------------|
      E|----------------------------------------------------|
      
      
      Repete Parte 1 de 2 e 2 de 2 (3x)
      
      Passagem - Parte 3 de 4
      
      E|----------------------------------------------------|
      B|----------------------------------------------------|
      G|-------X---------X---------X---------X---X--X-----X-|
      D|-11----X---14----X---11----X---14----X---11-X--14-X-|
      A|-0-----X---0-----X---0-----X---0-----X---0--X--0--X-|
      E|-------X---------X---------X---------X------X-----X-|
      
      
      Passagem - Parte 4 de 4
      
      E|----------------------------------------------------|
      B|---------------X----X-------------------------------|
      G|-14-14-14--13--X-11-X-9---11--11--------------------|
      D|-0--0--0---0---X-0--X-0---0---0---------------------|
      A|----------------------------------------------------|
      E|----------------------------------------------------|
      
      
      Riff 1 com variação:
      
      Riff 1 - Parte 3 de 6
      
      E|----------------------------------------------------|
      B|----------------------------------------------------|
      G|----------------------------------------------------|
      D|-11---------14---------11---------14---------11-----|
      A|-0--0-0-0-0-0--0-0-0-0-0--0-0-0-0-0--0-0-0-0-0--0-0-|
      E|----------------------------------------------------|
      
      
      Riff 1 - Parte 4 de 6
      
      E|----------------------------------------------------|
      B|----------------------------------------------------|
      G|----------------------------------------------------|
      D|-14-------------------------------------------------|
      A|-0--0-0---------------------------------------------|
      E|----------------------------------------------------|
      
      
      Riff 1 - Parte 3 de 6
      
      E|----------------------------------------------------|
      B|----------------------------------------------------|
      G|-14---------13---------11---------14---------13-----|
      D|-0--0-0-0-0-0--0-0-0-0-0--0-0-0-0-0--0-0-0-0-0--0-0-|
      A|----------------------------------------------------|
      E|----------------------------------------------------|
      
      
      Riff 1 - Parte 4 de 6
      
      E|----------------------------------------------------|
      B|----------------------------------------------------|
      G|-11-------------------------------------------------|
      D|----0-0---------------------------------------------|
      A|----------------------------------------------------|
      E|----------------------------------------------------|
      
      
      Riff 1 - Parte 5 de 6
      
      E|----------------------------------------------------|
      B|----------------------------------------------------|
      G|-------X---------X---------X---------X---X--X-----X-|
      D|-11----X---14----X---11----X---14----X---11-X--14-X-|
      A|-0-----X---0-----X---0-----X---0-----X---0--X--0--X-|
      E|-------X---------X---------X---------X------X-----X-|
      
      
      Riff 1 - Parte 6 de 6                              (2x)
      
      E|----------------------------------------------------|
      B|---------------X----X-------------------------------|
      G|-14-14-14--13--X-11-X-9---11--11--------------------|
      D|-0--0--0---0---X-0--X-0---0---0---------------------|
      A|----------------------------------------------------|
      E|----------------------------------------------------|
      
        Composição: Chorão / ThiagoColaboração e revisão:
        • tarsiuslima
        • pedross
        • Brumes

        Comentários 6

        140 .
        • ismael ismael: Em 18/02/2014 13:53

          faltou o video aula

        • Rhandson Rhandson : Em 06/08/2013 16:27

          Que musica do caralh*@#

        • pedross pedross: Em 29/03/2012 20:31

          agoraa tah organizado eu corrigii

        • stadnik123 stadnik123: Em 14/05/2011 19:15

          divia ter video aula,sem ofensas mas se tivesse uma video-aula não iria querer que o fofão cantasse e sim o leo pq ele é o mais foda.

          • Membi Membi: Em 10/07/2013 11:45

            O que o Fofão não canta, ele compensa tocando! O cara é foda! SUAHSUAHUSH

        • jeff jeff: Em 20/12/2010 12:05

          pessoal eu não entendi nada está mal oganizado!!!!!!!!!!!!!!!!!!!!!!!!!!!!!!!!!!!!!!!!!

        140 cancelar

        conseguiu tocar?

        heldinho118 visualizações
          ver covers de outras músicas »
          0:00 / 0:00

          Capítulos

            2 versões de baixo exibições contribuição e correção
            1 versão de Guitar Proformatodownloadscontribuição
            play/pausefechar subir/descer velocidade
            6ª corda E5ª corda A4ª corda D3ª corda G2ª corda B1ª corda E
              acordes
              publicidade
              fechar
              ok