Cifra Club

O Nosso Blues

Charlie Brown Jr.

Tab de baixo: Principal
exibições 12.394
A Música começa com o baixo fazendo um riff assim:
Riff 1 
G|-------------------------------------------|
D|-4h6-4h6~---6-4----------------------------|
A|---------------6-------------44-6----------|
E|----------------7x-6b-x-44-x------7~-------|
B|-------------------------------------------|

Riff 2
G|----------------|
D|----------------|
A|-44----4x4--4----|
E|----44----4-----|
B|-------------22-|

Riff 3 baixo
G|-------666--------------------------|
D|------------------------------------|
A|-444444444-222----------------------|
E|---------------555-444-222-4--------|
B|------------------------------------|

G|----------|
D|---6------|
A|----------|
E|-4---4----|
   T-P-T
                          
Falta o solo de SLAP, mas a base é essa.
Colaboração e revisão:
  • Gabriel Nascimento
  • Átila Nasciemento

0 comentários

    mostrar mais comentários

    Conseguiu tocar?

    1tocaram0ainda não

    Grave um vídeo tocando O Nosso Blues e mande pra gente!

    00:00 / 00:00
    outros vídeos desta música
    repetirqualidadeautomática
    Outro vídeos desta música
      00:00 / 00:00
      automática
      OK