Enviar cifraEntrar

Pontes Indestrutíveis

Charlie Brown Jr.

Tab de baixo: Principal
exibições 24.889
Primeiro todos sabem que o Heitor usa
um baixo de cinco cordas blz eh por mais 
que vcs tentem a parte do Ré na corda Lá 
vai fika mt paia entaum como ele faz na SI
eu vim aki corrigir blz essa tab ta 100% blz
nao tem mt diferença do ke Heitor faz abração ae
fui
Intro:
G -----------------------------------------------
D -12-12--12/15--15-15-14-12-7---5--5-5---7--7-7- 
A ----------------------------------------------- 
E -----------------------------------------------

G ----------------------------12/14------------------
D -12-12--12/15---15-15-14-12-------5--5-5---7--7-7--
A ---------------------------------------------------
E ---------------------------------------------------

G|----------------------------------------------------------------------------
D|--------------------------------------------------------------------------- (Junto com o Thiago)
A|---------------------------------------------------------------------------            [2X]
E|-------------5-5-5-5-5-5-5--3-5-5--3-3-3-3-3-3-3-1-3--5-5-5-5-5-5-5-5--3-5--- 
B|-3-3-3-3-1-3-----------------------------------------------------------------
            (Verso) : Buscando um novo rumo que faça sentido...

G ----------------------------------------------------------------------
D ---------------------------------------------------------------------- 
A ----------------------------------------------------------------------            [10X]
E --------------5-5-5-5-5-5-5--3-5-5--3-3-3-3-3-3-3--5-5-5-5-5-5-5-5--3-
B|-3-3-3-3-1-3----------------------------------------------------------                                                                       

            (Refrão) : O que importa é se sentir bem...

                    G -------------------------------------------
                    D -------------------------------------------      [3x]
                    A -------------5-5-5-5-5-5---3-3-3-3-3-3----- 
                    E ----6----5---------------------------------
                  
                                      E --------------
                                      D --------------    
                                      A --------------
                                      E ----6----5----

             Resgate suas forças e se sinta bem... [Até] ...Essa é a coisa mais pura!
 G -----------------------------------------------------------------------
D ----------------------------------------------------------------------- 
A ------------------------------------------------------------------------            [2X]
E --------------5-5-5-5-5-5-5--3-5-5--3-3-3-3-3-3-3--5-5-5-5-5-5-5-5--3-
B|-3-3-3-3-1-3-------------------------------------------------------------

                                    (Repete solo intro)

                             Difícil entender e viver num paraíso perdido 
                             mas não seja mais um iludido derrotado e sem juízo então ...
                          G -------------------------------------------------
                          D -------------------------------------------------   
                          A -------------------------------------------------
                          E ---10------10----------------10----10------------


              Resgate suas forças e se sinta bem... [Até] ...Essa é a coisa mais pura!
 G -----------------------------------------------------------------------
D ----------------------------------------------------------------------- 
A ------------------------------------------------------------------------            [4X]
E --------------5-5-5-5-5-5-5--3-5-5--3-3-3-3-3-3-3--5-5-5-5-5-5-5-5--3-
B|-3-3-3-3-1-3-------------------------------------------------------------

                    OBS: AS DUAS ULTIMA VEZES SÃO TOCADAS COM O SOLINHO DA GUITARRA

                                         (Refrão)

      Viver, viver e ser livre....[FICA TOCANDO NA NOTA "D" ATE O CHORÃO ACABAR DE CANTAR]

        (DEPOIS QUE O CHORÃO TERMINA DE CANTAR O HEITOR FAZ UMA PARADA NO BAIXO)
                        G -----------------------------
                        D -----------------------------      
                        A ------5h3h5----------5h3-----
                        E -----------------------------
                        B--------------------------3~~-
  • 1
  • 2
  • 3
  • 4
  • 5
  • 6
  • 7
  • 8
  • 9
  • 10
  • 11
  • 12
    Composição: Chorão / Thiago / Heitor / Pinguim / Edu RibeiroColaboração e revisão:
    • Tilynha
    • Fael Moreira
    • FHILIPS

    0 comentários

      mostrar mais comentários

      Conseguiu tocar?

      7tocaram0ainda não

      Grave um vídeo tocando Pontes Indestrutíveis e mande pra gente!

      00:00 / 00:00
      outros vídeos desta música
      repetirqualidadeautomática
      • automática
      Outro vídeos desta música
        00:00 / 00:00
        automática
        • automática
        fecharplay/pause subir/descer velocidade
        fechar
        OK
        Feedback