Pontes Indestrutíveis

Charlie Brown Jr.

Composição de: Chorão / Edu Ribeiro / Heitor / Pinguim / Thiago
G --------10--10-10-------------------------------|
D -12-12------------12-10-------------------------|
A ------------------------12-12--10--10-10--12-12-|
E ------------------------------------------------|

G --------------------10--10-10----------13~14~13---------------------
D -------10-----12-12------------12-10--------------------------------
A 12-12----12-------------------------12----------10--10-10--12--12-12
E --------------------------------------------------------------------

Essa esta 100% certa...soh pegar e tocar!!!

vlw abração glr!!!
Página 1 / 1

Letras e título
Acordes e artista

resetar configurações
OK