Cifra Club

Aprenda

Pontes Indestrutíveis

Charlie Brown Jr.

Cifra: Versão 3 (violão e guitarra)
tom: F
Afinação meio tom abaixo

feito com delay

Eb|--6--6---------------------------------------------------------------------------------------
Bb|--7--6---6-6-6-6-6-6-6-6-6-6-7/1-------------------------------------------------------------
F#--6--6---------------------------------------------------------------------------------------
C#---------------------------------------------------------------------------------------------


riff principal

Eb-6-6-6-6--4-4-6-6----------6-6-6----6----11-----6-----13--13-13------------------9-7-6-6-6-6-
Bb-7-7-6-6--4-4-6-6--6h7-----------6----6------6----6---------------6h7------------------------
F#-6-6-6-6--4-4-6-6-------8------------------------------------------------8-6-----------------
C#-----------------------------------------------------------------------------------8-868-6888

refrão
Eb|--2---1--------------------------------------------------------------------------------------
Bb|--2---1----------------6h7------------------6h7----------------------------------------------
F#--4---3---8xxxxxx-----------8xxxxxx----------------------------------------------------------
C#--4---3--------------------------------------------------------------------------------------
G#|--2---1--------------------------------------------------------------------------------------
Composição de Chorão / Edu Ribeiro / Heitor / Pinguim / Thiago
Colaboração e revisão:
  • Ícaro Nascimento
  • wellington souza
43.262 exibições
    • ½ Tom
    • A
    • Bb
    • B
    • C
    • Db
    • D
    • Eb
    • E
    • F
    • F#
    • G
    • Ab
  • Adicionar à lista

    0 comentários

    Ver todos os comentários

    Conseguiu tocar?

    0 Tocaram 0 Ainda não

    Grave um vídeo tocando Pontes Indestrutíveis e nos envie!

    00:00 / 00:00
    Outros vídeos desta música
    Repetir Qualidade Automático
    Outros vídeos desta música
    00:00 / 00:00
    Automático

    Cifra Club Pro

    Aproveite o Cifra Club com benefícios exclusivos e sem anúncios
    Cifra Club Pro
    Aproveite o Cifra Club com benefícios exclusivos e sem anúncios
    OK