Cifra Club

Puxa Carro

Charlie Brown Jr.

Cifra: Principal (violão e guitarra)
exibições 14.300
Tom: C (com acordes na forma de C#) Afinação: Eb Ab Db Gb Bb Eb
Introdução (Groove Baixo e Riff 01)

   .Groove Baixo
D#|--------------------------------
A#|--------------------------------
F#|--------------------------------
C#|----------5---------------------
G#|-7-7--5-7---7-5-7---5-----------
D#|------------------7-------------

    .Guitarra 01 (wah-wah) riff 01
D|------------------------------------------------|
A|-17-17-x-x-17-17-17-----------------------------|
F|-16-16-x-x-16-16-16-----------------------------|
C|-14-14-x-x-14-14-14--12h14p12h14----------------|
G|----------------------------------10h12p10h12---|
D|------------------------------------------------|

    .Guitarra 02 Riff 02
D|--------------------------------|
A|--------------------------------|
F|--------------------------------|
C|-----5~~------------------------|
G|----------0-2-0-2s5-------------|
D|-0~~----------------------------|

Verso 01 (Riff 01 e 02)

Sonhei que roubava um carro
Sem saber, inconsciente pra onde ia
Mas o sonho me levava
Pra uma praia, aparentemente, desconhecida

[Pré-refrão]

G5     A5            G5  A5
 Fugindo da polícia!
G5     A5            G5  A5
 Fugindo da polícia!

Verso 02 (Riff 01 e 02)

Estava com meu pai e meu irmão mais velho
Precisávamos de alguns espelhos


[Pré-refrão]

G5     A5            G5  A5
 Fugindo da polícia!
G5     A5            G5  A5
 Fugindo da polícia!


[Refrão]

    .Guitarra 01 (wah-wah) Riff 03
D|--------------------------------|
A|-12-----------------------------|
F|----0-11~~-0-11-0---------------|
C|--------------------------------|
G|--------------------------------|
D|--------------------------------|

    .Guitarra 02 Riff 04
D|--------------------------------|
A|--------------------------------|
F|---0-----0---0------------------|
C|-5---4~~---4--------------------|
G|--------------------------------|
D|--------------------------------|

Em que sonho estará a verdade
Que fala dos males que cerca o lugar?
Em que sonho, eu sonhei com a sede de um dia
De um dia poder te vingar?
Você veio, espalhou tua lama, aumentou minha fama
A batida secou o lugar
Sede que acende e adrena na veia
Me levam pra onde eu quiser estar!


Introdução (Groove Baixo / Riff 01 / Riff 02)


Verso 01 (Riff 01 e 02)

Sonhei que roubava um carro
Sem saber, inconsciente pra onde ia
Mas o sonho me levava
Pra uma praia, aparentemente, desconhecida


[Pré-refrão]

G5     A5            G5  A5
 Fugindo da polícia!
G5     A5            G5  A5
 Fugindo da polícia!


[Refrão]

    .Guitarra 01 (wah-wah) Riff 03
D|--------------------------------|
A|-12-----------------------------|
F|----0-11~~-0-11-0---------------|
C|--------------------------------|
G|--------------------------------|
D|--------------------------------|

    .Guitarra 02 Riff 04
D|--------------------------------|
A|--------------------------------|
F|---0-----0---0------------------|
C|-5---4~~---4--------------------|
G|--------------------------------|
D|--------------------------------|

Em que sonho estará a verdade
Que fala dos males que cerca o lugar?
Em que sonho, eu sonhei com a sede de um dia
De um dia poder te vingar?
Você veio, espalhou tua lama, aumentou minha fama
A batida secou o lugar
Sede que acende e adrena na veia
Me levam pra onde eu quiser estar!


Solo (base = Riff 02)


D|-17p14s10--14p10s7--10p7s5---------------------------------------|
A|----------------------------s7-----------------------------------|
F|-------------------------------7---------------------------------|
C|---------------------------------7~~-----------------------------|
G|---------------------------------------9h10h12--7s9-5------------|
D|-----------------------------------------------------------------|

D|-------------|-------------------------|-------------------------|
A|-------------|-------------------------|-------------------------|
F|-------------|----------10s11-10s11----|----------10s11----------|
C|-------------|-------12-------------12-|-------12----------------|
G|---5-7-9---5-|-12-14-------------------|-12-14----------12-14----|
D|-7-------7---|-------------------------|-------------------------|

D|-------------------------|---------------------------------------|
A|-------------------------|---------------------------------------|
F|----------10s11-10s11----|----------10s11h12h14-9s11-------------|
C|-------12-------------12-|-------12------------------------------|
G|-12-14-------------------|-12-14---------------------------------|
D|-------------------------|---------------------------------------|

D|-----------------------------------------------------------------|
A|-----------------------------------------------------------------|
F|-s11~~~~---------------12s14-11~~--------------------------------|
C|--------12-------12-14---------------12-14-----------------------|
G|-----------12-14------------------14-------12-12h14-10-----------|
D|-----------------------------------------------------------------|

D|-19b21~~-19b21~~-19b21~~--17h18p17p15----------------------------|
A|-----------------------------------------------------------------|
F|---------------------------------------14h15p14p12---------------|
C|-----------------------------------------------------------------|
G|----------------------------------------------------12h13p12p10--|
D|-----------------------------------------------------------------|

D|-----------------------------------------------------------------|
A|-------------------------15-----------17-------------------------|
F#|-------------12-14-14s16----16s14-12-----14--14h15p14s12*--------|
C|-------12-14-----------------------------------------------------|
G|-12s14-----------------------------------------------------------|
D|-----------------------------------------------------------------|


Pré-Refrão

   .Groove Baixo
D#|--------------------------------
A#|--------------------------------
F#|--------------------------------
C#|----------5---------------------
G#|-7-7--5-7---7-5-7---5-----------
D#|------------------7-------------

Fugindo da polícia
Fugindo da polícia
Fugindo da polícia
Fugindo da polícia
Wooooooooooooow

G5     A5            G5  A5
 Fugindo da polícia!
G5     A5            G5  A5
 Fugindo da polícia!
G5     A5            G5  A5
 Fugindo da polícia!
G5     A5            G5  A5
 Fugindo da polícia!

 WOW
Acordes para:
    Colaboração e revisão:
    • Renan Luiz

    0 comentários

      mostrar mais comentários

      Conseguiu tocar?

      1tocaram0ainda não

      Grave um vídeo tocando Puxa Carro e mande pra gente!

      00:00 / 00:00
      outros vídeos desta música
      repetirqualidadeAutomático
      Outro vídeos desta música
        00:00 / 00:00
        OK