Cifra Club

Rubão

Charlie Brown Jr.

Tab de baixo: Principal
exibições 25.463
[Introdução]

Parte 1 de 2
G|-9-8------------------------------------------|
D|-----8\---------------------------------------|
A|----------------------------------------------|
E|----------------------------------------------|

Parte 2 de 2 (4x)
G|----------------------------------------------|
D|----------------------------------------------|
A|---------4-4---4-6-6-4-6-7-6-4-6--------------|
E|-6-6-4-6-----6--------------------------------|


[Primeira parte]

Desempregado e falido...

Parte 1 de 3 (3x)
G|----------------------------------------------|
D|----------------------------------------------|
A|---------4-4---4-6-6-4-6-7-6-4-6--------------|
E|-6-6-4-6-----6--------------------------------|

Parte 2 de 3
G|----------------------------------------------|
D|----------------------------------------------|
A|---------4-4---4-6-6-6\-----------------------|
E|-6-6-4-6-----6-----------2-2-1----------------|

Parte 3 de 3 (4x)
G|----------------------------------------------|
D|----------------------------------------------|
A|---------4-4---4-6-6-4-6-7-6-4-6--------------|
E|-6-6-4-6-----6--------------------------------|


[Refrão]

Rubão, Rubão, pagou pra ver... 

Parte 1 de 1 (4x)
G|----------------------------------------------|
D|----------------------------------------------|
A|---------4-4-4-4-6-6-6-6-0-7-6-4--------------|
E|-6-6-6-6--------------------------------------|


[Introdução 2]

Parte 1 de 1
G|----------------------------------------------|
D|----------------------------------------------|
A|-----------13\--------------13\------------13\|
E|-6-6--6-6-------6-6--4-6-6------6-6--4-6-6----|

G|----------------------------------------------|
D|----------------------------------------------|
A|----------------------------------------------|
E|-6-6--4-6-6-----------------------------------|


[Segunda parte]

Catou várias mulheres, convocou os amigos...

Parte 1 de 2 (3x)
G|----------------------------------------------|
D|----------------------------------------------|
A|---------4-4---4-6-6-4-6-7-6-4-6--------------|
E|-6-6-4-6-----6--------------------------------|

Parte 2 de 2
G|----------------------------------------------|
D|----------------------------------------------|
A|---------4-4---4-6-6-6\-----------------------|
E|-6-6-4-6-----6-----------2-2-1----------------|


[Refrão 2]

Rubão, Rubão, pagou pra ver... 

Parte 1 de 1 (4x)
G|----------------------------------------------|
D|----------------------------------------------|
A|---------4-4-4-4-6-6-6-6-0-7-6-4--------------|
E|-6-6-6-6--------------------------------------|


[Introdução 3]

Parte 1 de 4 (4x)
G|----------------------------------------------|
D|----------------------------------------------|
A|---------4-4-4-4-6-6-6-6-0-7-6-4--------------|
E|-6-6-6-6--------------------------------------|

Parte 2 de 4
G|----------------------------------------------|
D|----------------------------------------------|
A|-----------13\--------------13\------------13\|
E|-6-6--6-6-------6-6--4-6-6------6-6--4-6-6----|

G|----------------------------------------------|
D|----------------------------------------------|
A|----------------------------------------------|
E|-6-6--4-6-6-----------------------------------|


Charlie Brown, isso é Charlie Brown, mané!

Parte 3 de 4 (3x)
G|----------------------------------------------|
D|----------------------------------------------|
A|---------4-4---4-6-6-4-6-7-6-4-6--------------|
E|-6-6-4-6-----6--------------------------------|

Parte 4 de 4
G|----------------------------------------------|
D|----------------------------------------------|
A|---------4-4---4-6-6-6\-----------------------|
E|-6-6-4-6-----6-----------3-3-2--6-------------|


[Refrão 3]

Rubão, Rubão, pagou pra ver... 

Parte 1 de 2 (4x)
G|----------------------------------------------|
D|----------------------------------------------|
A|---------4-4-4-4-6-6-6-6-0-7-6-4--------------|
E|-6-6-6-6--------------------------------------|

Parte 2 de 2
G|----------------------------------------------|
D|----------------------------------------------|
A|-----------13\--------------13\---------------|
E|-6-6--6-6-------6-6--4-6-6------6-------------|

0 comentários

    mostrar mais comentários

    Conseguiu tocar?

    6tocaram0ainda não

    Grave um vídeo tocando Rubão e mande pra gente!

    00:00 / 00:00
    outros vídeos desta música
    repetirqualidadeautomática
    Outro vídeos desta música
      00:00 / 00:00
      automática
      Capítulos
      • Tocando a música
      • Apresentação / Equipamentos
      • Tab - Introdução - Parte 1 de 2
      • Tab - Introdução - Parte 2 de 2
      • Tab - Primeira Parte - Parte 1 de 3
      • Tab - Primeira Parte - Parte 2 de 3
      • Tab - Primeira Parte - Parte 3 de 3
      • Tab - Refrão 1
      • Tab - Introdução 2
      • Tab - Segunda Parte - Parte 1 de 2
      • Tab - Segunda Parte - Parte 2 de 2
      • Tab - Introdução 3 - Parte 1 de 4
      • Tab - Introdução 3 - Parte 2 de 4
      • Tab - Introdução 3 - Parte 3 de 4
      • Tab - Introdução 3 - Parte 4 de 4
      • Tab - Refrão 3 - Parte 1 de 2
      • Tab - Refrão 3 - Parte 2 de 2
      • Encerramento
      OK