Cifra Club

Senhor do Tempo

Charlie Brown Jr.

Tab de baixo: Principal
exibições 139.434
Riff 1
   ME. MD.......  ME  MD  ME.  MD  ME.  MD...
G|------------17------17-------18--------------------
D|------14/15-15------15-------16-------14\13--------
A|-4-4------------4-------7-7------------------------
E|---------------------------------7-7---------------
B|---------------------------------------------------


Riff 2
   ME....  MD  ME  MD  ME.....  MD......  ME  MD
G|---------15------13-----------------17------17-----
D|-----11--13------13-----------14/15-15------15-----
A|-9-9---------9-------9\--4-4------------4---------- (3x)
E|---------------------------------------------------
B|---------------------------------------------------

   ME....  MD  ME  MD  ME.....  MD......
G|---------15------13-----------------17-------------
D|-----11--13------13-----------14/15-15-------------
A|-9-9---------9-------9\--4-4-----------------------
E|---------------------------------------------------
B|---------------------------------------------------

0 comentários

    mostrar mais comentários

    Conseguiu tocar?

    20tocaram0ainda não

    Grave um vídeo tocando Senhor do Tempo e mande pra gente!

    00:00 / 00:00
    outros vídeos desta música
    repetirqualidadeautomática
    Outro vídeos desta música
      00:00 / 00:00
      automática
      Capítulos
      • Início
      • Tocando a música
      • Dicas Iniciais
      • Exercícios - Tapping
      • Tocando Riff 1
      • Notas do Riff 1
      • Ensinando Riff 1
      • Tocando Riff 2
      • Notas do Riff 2
      • Ensinando Riff 2
      • Encerramento
      OK