Cifra Club

Só Os Loucos Sabem

Charlie Brown Jr.

Tab de baixo: Principal
exibições 15.888
                       2º "Introdução" pós refrão - Inicio do Baixo (Só os loucos sabem ... )

G|-------------------------------------------------------------------------|  2x 
D|--------------5b7-5--10-10--7b9-7-5----9-----9--7b9-7--------------------| 
A|----------5b7------------------------7-----7-----------------------------|
E|----3--3------------------------------------------------8-8--8-8-8-8-----|

                       2º Parte ( Toda positividade eu desejo a você ...)

G|----------------------------------------------------------------|        |
D|---------------------------------------------------7/9-7-5-7----|        |
A|----3/7-7-7-7/3-3-3-0-----5-3-----3/7-7-7-----5-5---------------|        |
E|----------------------3-3-----3-----------3-3-------------------|        |
                                                                           |  2x 
G|----------------------------------------------------------------|        | 
D|----------------------------------------------------------------|        | 
A|----3/7-7-7-7/3-3-3-0-----5-3-----------------------------------|        |
E|----------------------3-3-----3--5--5--5-5-5-3--8-8-8-----------|        |

                        2º Riff da Música. 

G|----------------------------------------------------------------| 
D|--------------5-7-5-4-5-4-5------9-7-9-7-9----------------------| 
A|----------3-5----------------5/7--------------------------------|
E|----3-3-3----------------------------------8--8-8-8-8-8---------|

G|-------------------------------------------------------------------------------| 
D|------------5-7-9-10-9-7-5-4-----9-7-9-7-9-------------------------------------| 
A|--------3-5------------------5/7-----------------------9/15-15-15-15-15-15-15--|
E|----3-3------------------------------------8--8-8-8-8-8------------------------|


                        3º Parte Pós Riff ( Agora eu sei , exatamente o que fazer ...)


G|----------------------------------------------------------------|  
D|---------------------------------------------------7/9-7-5-7----|     
A|----3/7-7-7-7/3-3-3-0-----5-3-----3/7-7-7-----5-5---------------|    
E|----------------------3-3-----3-----------3-3-------------------|    
                                                                         
G|----------------------------------------------------------------|       
D|----------------------------------------------------------------|        
A|----3/7-7-7-7/3-3-3-0-----5-3-----------------------------------|        
E|----------------------3-3-----3--5--5--5-5-5-3--8-8-8-----------|       
                       

                        3º Introdução


G|---------------------------------------------------------------------------|  2x 
D|--------------5b7-5--10-10--7b9-7-5----9-----9--7b9-7----------------------| 
A|----------5b7------------------------7-----7-------------------------------|
E|----3--3------------------------------------------------8-8--8-8-8-8---*3~ |  * Só no fim da segunda vez
Composição: Chorão / Thiago Castanho Colaboração e revisão:
  • Gabriel Biasotti

0 comentários

mostrar mais comentários
00:00 / 00:00
outros vídeos desta música
repetir qualidade Automático
Outros vídeos desta música
00:00 / 00:00
Automático
OK