Cifra Club

Só Os Loucos Sabem

Charlie Brown Jr.

Tab de baixo: Estudio
Começa após introdução do violão, junto do vocal.

• Parte 1 e Refrão:
(Repetir 3 Vezes)
G|---------------------------------------------------------------------------------------------------------|
D|---------------------------------------------------------------------------------------------------------|
A|--4----4---4-4-x-4-0-----0--7---7---7-7--7-7--7-7-7-7\4-----4---4-4-x-7---7------------------------------|
E|------------------------------------------------------------------------------7----7---7-7--7-7--7-7-7-7-|

G|------------------------------------------------------|--------------------------------------------------------|
D|----------------------------2---2---2-2--2-2--2-2-2-2-|--------------------------------------------------------|
A|--4----4---4-4-x-4-0-----0----------------------------|--------------------------------------------------------|
E|------------------------------------------------------|-2-----2--2-2--2-2---2h4----4--5---5--5-5--5-5--5-5-5-5-|


•Intro:

G|---------------------------------------------------------------------------------------|
D|-----------------------------------------5----5---5-5-5-5-5555-5----5--5-5--5-5--------| (x2)  
A|--------------4/5---5/7h8p7----7--5-5-4------------------------------------------(7-7)-|
E|----7----7-----------------------------------------------------------------------------|


• Parte 2:

Repete a primeira parte 2 vezes

(Tocar suavemente esse trecho)
G|---9-9-8-8-9-9-8-8-9-9-9-|-9-9-8-8-9-9-8-8-9-9-9--(x2)|------------------------------|
D|-------------------------|----------------------------|-5----7----9---9-9---9-9--9-9-|
A|-------------------------|----------------------------|------------------------------|
E|-5/7---------------------|----------------------------|------------------------------|

G|-9-9-8-8-9-9-8-8-9-9-9--(x3)|---------------------------------(x2)|
D|----------------------------|---5----7----9---9-9---9-9--9-9------|
A|----------------------------|-------------------------------------|
E|----------------------------|-------------------------------------|

• Parte 3:

G|---------------------------------------------------------------------------------------------------------|
D|---------------------------------------------------------------------------------------------------------|   
A|----------------------------7---7---7-7--7-7--7-7-7-7\4-----4---4-4-x-7---7------------------------------|  
E|--9---9---9-9-x-9-5-----5-----------------------------------------------------7----7---7-7--7-7--7-7-7-7-|  
                                                                              
G|------------------------------------------------------|--------------------------------------------------------|
D|----------------------------2---2---2-2--2-2--2-2-2-2-|--------------------------------------------------------|
A|--4----4---4-4-x-4-0-----0----------------------------|--------------------------------------------------------|
E|------------------------------------------------------|-2-----2--2-2--2-2---2h4----4--5---5--5-5--5-5--5-5-5-5-|

Repete Intro

G|-----------------------------------------------------------------------------------------|
D|-----------------------------------------5----5---5-5-5-5-5555-5----5--5-5--5-5----------| (x2)
A|--------------4/5---5/7h8p7----7--5-5-4--------------------------------------------(7~~)-|
E|----7----7-------------------------------------------------------------------------------|
exibições 864
Composição: Chorão / Thiago Castanho Colaboração e revisão:
  • Rawin Mc

0 comentários

mostrar mais comentários
00:00 / 00:00
outros vídeos desta música
repetir qualidade Automático
Outros vídeos desta música
00:00 / 00:00
Automático
OK