Cifra Club

Aprenda

Tudo Pro Alto

Charlie Brown Jr.

Cifra: Principal (violão e guitarra)
Tom: F#
[Intro] C#5  D#5 

[Solo]

E|----------------------------------------------------------------|
B|----------------------------------------------------------------|
G|----------------------------------------------------------------|
D|------3-----3----------5----------------------------------------|
A|--4-4---4-4---4----6-6---6-6----4--3---1-1-1-1-0-1-1-1----------|
E|----------------------------------------------------------------|

(Riff 1)

E|-----------------------------------|
B|-----------------------------------|
G|------10-10-10-10--10/11/10--------|
D|-----------------------------------|
A|------8--8--8--8----8/9/8----------|
E|-----------------------------------|

(Riff 2)

E|-----------------------------------|
B|-----------------------------------|
G|------10-10-9-9-8-8-6-6-6-6--------|
D|-----------------------------------|
A|------8--8--7-7-6-6-4-4-4-4--------|
E|-----------------------------------|

( C#5  D#5  A#m )

Jogar tudo pro alto lhe convém ? 
Estar acima da razão 
Só porque somos jovens, só porque somos jovens --> Riff 1 
Desesperado com o mundo estou também 
Escondem tudo com um sorrizo na TV e não contam a ninguém --> Riff 2 
(C#5,D#5,A#m,G#m,A#m) 
Estou confuso joguei tudo pra trás 
Mas no fundo eu sei que eu não tentei de tudo 
Mas que bom poder ter uma chance a mais --> Riff 2
Estou confuso joguei tudo pra trás 
Mas no fundo eu sei que não tentei de tudo 
Que bom poder ter uma chance a mais 

( C#5  D#5  A#m )

Tratado de forma que não deu pra entender tanta frieza --> Riff 1
Disposição de sobra , vou vencer assim mesmo 
Já nem lembro de vocês --> Riff 2
(C#5,D#5,A#m,G#m,A#m) 
Então é o vício o que te faz correr atrás 
De mais que o início 
Bem que eu te avisei aquela vez que eu te encontrei 

( C#5  D#5  A#m )

Taratátatatá... 

( C#5  D#5  A#m )

A vida corre pelas ruas numa busca sem sentido 
Enquanto o mundo está em guerra por paz 
Não me pergunte o que eu quero da vida que eu quero da vida 
Eu tenho sede de mais --> Riff 1 
A vida flui na sua loucura e o momento é decisivo 
Mas agora estou confuso de mais não me pergunte o que eu quero da vida 
Não me pergunte o que eu quero da vida , eu tenho sede de mais --> Riff 2 
(C#5,D#5,A#m,G#m,A#m) 
Mas deixe eu só te dizer o quanto eu quero bem você... Charlie Brown!!!!

[Solo] C#5  D#5  A#m 
Taratátatatá
  
( C#5  D#5  A#m  G#m  A#m )

E|----------------------------------------------|
B|----------------------------------------------|
G|----------------------------------------------|
D|-------4-------4---------6--------------------| 2x
A|--5--5---5---5---5--7--7---7---7--5-4-2-------|
E|----------------------------------------------|
Composição de Guilermo Pelado
Colaboração e revisão:
  • Andre Vinicius
  • ROMERO BARBOSA
188.937 exibições
    • ½ Tom
    • A
    • Bb
    • B
    • C
    • Db
    • D
    • Eb
    • E
    • F
    • F#
    • G
    • Ab
  • Adicionar à lista

    0 comentários

    Mostrar mais comentários

    Conseguiu tocar?

    21 Tocaram 3 Ainda não

    Grave um vídeo tocando Tudo Pro Alto e mande pra gente!

    00:00 / 00:00
    outros vídeos desta música
    repetir qualidade Automático
    Outros vídeos desta música
    00:00 / 00:00
    Automático
    OK