Cifra Club

Aprenda

Tudo Que Ela Gosta de Escutar

Charlie Brown Jr.

Cifra: Versão 2 (violão e guitarra)
Tom: A#
Intro: (Cm7 Eb9 Cm7 F)
        Cm            Eb9                F9             Cm       Eb9       Cm        Eb9   F9
E|---------8--------6--6----------8-----8--8--------------8----6--6-----------8-----6----8-----------
B|---------8--------6--6----------8-----8--8--------------8----6--6-----------8-----6----8---------
G|---------8--------8--8----------8-----10-10-------------8----8--8-----------8-----8----10------
D|---10----------------------10--------------------10-------------------10------------------------
A|---10----------------------10--------------------10-------------------10-----------------
E|---8-----------------------8---------------------8--------------------8---------------

A base da música é assim até o refrão, que muda para as notas com quinta

 Cm            Eb9           Cm         F9
 ESSA É UMA HISTÓRIA DE AMARGAR    CONHECI UMA

 GAROTA MEU  IRMÃO EU VOU
         Cm Eb9 F9
 LHE FALAR
 Cm            Eb        Cm
 TUDO QUE ELA  QUER O PAI DELA DÁ
 F9        Cm       Eb9      Cm
  DESDE CASA EM UBATUBA ,ATÉ ap.
            Eb9   F9
    NO GUARUJÁ

Solo de acompanhamento:
E|---------------------------------------------
B|---------------------------------------------
G|---------3---------------------3-------------
D|-----3-5---5-3-------------3-5---5-3---------
A|-3-6-----------6-1h3-6-3-6-----------6-1h3---
E|---------------------------------------------

         Cm            Eb9         Cm   F9
 FIM DE FESTA OLHO PRA ELA, ELA SORRIU PRA MIM

 ME SECOU A NOITE     INTEIRA
     Cm             Eb9 F9
 ELA SÓ PODE ESTAR AFIM
          Cm        Eb9         Cm          F9
 ELA TEM CARRO    IMPORTADO  E TELEFONE CELULAR
          Cm        Eb9         Cm          F9
 EU SÓ   TENHO UMA MAGRELA E UM  AP.     NO  BNH

(Faz o F5 mas agudo. Se não desproporciona o som)

         C5            Eb5          C5
 EU FALO TUDO QUE ELA GOSTA DE ESCUTAR
 F5            C5           Eb5      C5      F5
 DEVE SER POR ISSO QUE ELA VEM ME PROCURAR. AH! AH!
             C5           Eb5      C5      F5
 EU FALO EU FALO TUDO QUE ELA GOSTA DE ESCUTAR
       C5       Eb5          C5         Bb5
 DEVE SER POR  ISSO QUE ELA VEM ME PROCURAR
       Cm         Eb9              Cm         F9
 O PAI DELA RIU DE MIM PORQUE O MEU CARRO É POPULAR
            Cm         Eb9        Cm    Eb9  F9
 E AINDA ME DEU UMA NOTÍCIA DE DESANIMAR
    Cm            Eb9           Cm      F9
 "RAPAZ VOCÊ NÃO É BOM PRA MINHA FILHA NÃO,
            Cm         Eb9                 Cm
 QUEM É TEU PAI? QUEM É VOCÊ? O QUE QUE VOCÊ FAZ?
            Eb9    F9
 VOU INVESTIGAR VOCÊ! HA!HA!HO!HO!HO!HO!"

[ Solo de acompanhamento ]

 [ REPETIR ATÉ A PARTE "... NO BNH" ]

EU FALO TUDO QUE ELA GOSTA DE ESCUTAR
DEVE SER POR ISSO QUE ELA VEM ME PROCURAR
EU FALO, EU FALO TUDO QUE ELA GOSTA DE ESCUTAR
DEVE SER POR ISSO QUE ELA VEM ME PROCURAR É! É!

Solo (meio por cima, mas tá a mesma coisa:
E|--------------------------------------------15h17-17h19-19h20---
B|----------------------------------------------------------------
G|-8----8----8---------------------8----8-------------------------
D|---10---10---10-8-8-8-8-8-8-9-10---10---10----------------------
A|----------------------------------------------------------------
E|----------------------------------------------------------------

+ 3 VEZES ESSA ULTIMA PARTE.

 SOLO:(Cm Ab Eb Cm Ab Eb) 2 VEZES

      (Cm Eb Bb Ab) 2 VEZES
Composição de Charlie Brown Jr. / Guilermo Pelado
Colaboração e revisão:
  • Eric
145.492 exibições
    • ½ Tom
    • A
    • Bb
    • B
    • C
    • Db
    • D
    • Eb
    • E
    • F
    • F#
    • G
    • Ab
  • Adicionar à lista

    0 comentários

    Mostrar mais comentários

    Conseguiu tocar?

    4 Tocaram 0 Ainda não

    Grave um vídeo tocando Tudo Que Ela Gosta de Escutar e mande pra gente!

    00:00 / 00:00
    outros vídeos desta música
    repetir qualidade Automático
    Outros vídeos desta música
    00:00 / 00:00
    Automático

    Cifra Club Pro

    Aproveite o Cifra Club com benefícios exclusivos e sem anúncios
    7 dias grátis
    Cifra Club Pro
    Aproveite o Cifra Club com benefícios exclusivos e sem anúncios
    7 dias grátis
    OK