Cifra Club

Aprenda

Tudo Que Ela Gosta de Escutar

Charlie Brown Jr.

Tab de baixo: Versão 2
INTRO
G|--------------------------------------------------|
D|--------1-1-----3-3------1-1-----------1----------|
A|-15/3-3----3-3-------3-3-----3-3-----1---(3)------| 1x
E|---------------------------------1-3--------------|

G|---------------------------------------------------|
D|-----1-1----3-3------1-1------3-1------------------|
A|-3-3----3-3------3-3-----3-3------3-1---(3)--------| 1x
E|---------------------------------------------------|

G|---------------------------------------------------|
D|-----1-1-------3-3------1-1-----------1------------|
A|-3-3------3-3-------3-3-----3-3-----1---3------(3)-| 1x
E|---------------------------------1-3---------------|

G|---------------------------------------------------|
D|-----1-1----3-3------1-1------3-1------------------|
A|-3-3----3-3------3-3-----3-3------3-1-(3)----------| 1x
E|---------------------------------------------------|

G|---------------------------------------------------|
D|--------1-1-----3-3------1-1-----------1---(3)-----|
A|----3-3----3-3-------3-3-----3-3-----1---3---------| 1x

G----------------------------------------------------|
D|-----1-1----3-3------1-1------3-1------------------|
A|-3-3----3-3------3-3-----3-3------3-1---(3)--------| 1x
E|---------------------------------------------------|

REFRAO
G|---------------------------------------------------------------------|
D|---------1-1-1-1-------3-3-3-3---------1-1-1-1----------------1-(3)--|
A|-3-3-3-3---------3-3-3-3-------3-3-3-3---------3-3-3-3-----1---------| 1x
E|-------------------------------------------------------1-3-----------|

G|---------------------------------------------------------------|
D|---------1-1-1-1-------3-3-3-3---------1-1-1-1--------3-1------|
A|-3-3-3-3---------3-3-3-3-------3-3-3-3---------3-3-3-3---3-1---| 1x
E|---------------------------------------------------------------|

(depois volta tudo de novo e depois do segundo refrao pula pro solo)

SOLO
G|---------------------------------|
D|---------------------------------|
A|-3-3----6--3-3-----6-------------| 2x 
E|----4-4--------4-4---------------|

G|---------------------------------|
D|---------------------------------|
A|-3-3----6--3-3-----6-------------| 4x
E|----4-4--------4-4---------------|
(nessa parte jah entra a guitarra)

G|------------------------------------|
D|------------------------------------|
A|-3-3-3-3-6-6-6-6--------------------| 2x 
E|-----------------6-6-6-6--4-4-4-4---|

dai volta pro refrao e acaba a musik

isso eh oq ele tok essa ta certinha rsrsrs
Composição de Charlie Brown Jr. / Guilermo Pelado
Colaboração e revisão:
  • marcos
4.364 exibições

0 comentários

Mostrar mais comentários

Conseguiu tocar?

0 Tocaram 0 Ainda não

Grave um vídeo tocando Tudo Que Ela Gosta de Escutar e mande pra gente!

00:00 / 00:00
outros vídeos desta música
repetir qualidade Automático
Outros vídeos desta música
00:00 / 00:00
Automático

Cifra Club Pro

Aproveite o Cifra Club com benefícios exclusivos e sem anúncios
7 dias grátis
Cifra Club Pro
Aproveite o Cifra Club com benefícios exclusivos e sem anúncios
7 dias grátis
OK