Cifra Club

Vivendo Nesse Absurdo

Charlie Brown Jr.

Cifra: Principal (violão e guitarra)
exibições 50.559
Tom: G#
Obs.: Aê pessoal essa é minha primeira cifra e provavelmente deve
      estar com alguns erros, por favor contribuam para melhorar essa
      música que é a melhor do novo CD.Ainda estou tirando os solos
      assim que terminar eu acrescento. Valeu !!!!


Riff 1
                  D#
e|------------------------------------------
B|------------------------------------------
G|--8888-888-88888-888-8888-888-88888-888---
D|--8888-888-88888-888-8888-888-88888-888---
A|--6666-666-66666-666-6666-666-66666-666---
E|------------------------------------------

Riff 2
           C#
e|----------------------
B|----------------------
G|--6666-666-66666-66---
D|--4444-444-44444-44---
A|--4444-444-44444-44---
E|----------------------

Riff 3
                                                Palm mute
e|--10-10-10-10-10-11-11-11-11-11------19-19-19-19-19------------------
B|----------------------------------------------------18-18-18-19-19---
G|---------------------------------------------------------------------
D|---------------------------------------------------------------------
A|---------------------------------------------------------------------
E|---------------------------------------------------------------------

Riff 4
                         Palm mute                        Palm mute 
e|------------------------11-11-11-11--------------------19-19-19-19---
B|---------------------------------------------------------------------
G|---------------12-13-8-----------------------12-13-8-----------------
D|---------------------------------------------------------------------
A|---------------------------------------------------------------------
E|---------------------------------------------------------------------

Riff 5
      ( D#           G#          D# ) 4x                         2x
e|-------------------------------------------------------------------------------------
B|-------------------------------------------------------------------------------------
G|--8-8-8-8-8--13-13-13-13-13--8-8-8-8-8-----8/13-13-13-13--8/13-13-13-13--8---8---8---
D|--8-8-8-8-8--13-13-13-13-13--8-8-8-8-8-----8/13-13-13-13--8/13-13-13-13--8---8---8---
A|--6-6-6-6-6--11-11-11-11-11--6-6-6-6-6-----8/11-11-11-11--8/13-13-13-13--6---6---6---
E|-------------------------------------------------------------------------------------

Parte do Solo 1  (Pessoal me desculpem por estar só uma parte,mas foi só o que eu consegui pegar,Natan)

e|-11-11-11-11-11h13p11-9-9-9-9-6-11-9------9-11--11~p9---------9h11-9-11--------------|
B|-------------------------------------11~11----11-----11-9-7-11-----------------------|
G|-------------------------------------------------------------------------------------|
D|-------------------------------------------------------------------------------------|
A|-------------------------------------------------------------------------------------|
E|-------------------------------------------------------------------------------------|


Intro - Riff 1

Riff 1
Eu não busco a perfeição em ninguém
Riff 1
E não quero que busquem isso em mim
Riff 1
Ta tudo tumultuado eu sei
Riff 1
Mas me dá uma trégua
Riff 1                 Riff 2
Eu vim de longe só pra ver você
Riff 1
Tenho muita coisa pra te dizer

Riff 3   Riff 4
Riff 1
Dias difíceis passaram por mim
Riff 1
Nada acontece de graça e o fim
Riff 1
Até que a vida me deixa leva
Riff 1
Mas paguei o preço
Riff 1
Isso é passado
     Riff 2     
Mas agora eu sei
Riff 1
O valor que as coisas tem pra mim

Refrão 
Riff 5
Tentei me manter consciente
No meio disso tudo
Eu não sou alienado
Mas eu vivo nesse absurdo

Parte do Solo 1

Riff 1
Toda a força que eu vejo em você
Riff 1
Tem sido vital pra mim
Riff 1
Você ainda é meu melhor pecado
Riff 1
É o que eu mais desejo
Riff 1
É o meu berço
   Riff 2
E agora eu sei
Riff 1
O quanto conhece você
Foi bom pra mim

Refrão
Riff 5
Tentei me manter consciente
No meio disso tudo
Eu não sou alienado
Mas eu vivo nesse absurdo

Solo 2

Riff 1 8x e fade out
Acordes para:
    Composição: Guilermo Pelado Colaboração e revisão:
    • Marcos Pacheco

    0 comentários

    mostrar mais comentários

    Conseguiu tocar?

    0 tocaram 0 ainda não

    Grave um vídeo tocando Vivendo Nesse Absurdo e mande pra gente!

    00:00 / 00:00
    outros vídeos desta música
    repetir qualidade Automático
    Outros vídeos desta música
    00:00 / 00:00
    Automático
    OK