Notificações Amigos pendentes

      Charlie Brown Jr.

      Você Vai De Limusine , Eu Vou De Trem

      99.671 exibições
      Tom: C#
      Versão 3
      -======-
      Melodia:
      (Base 1)
                            C#5
      Você me diz que sou desajeitado
             F#
      Eu não sou ninguém
       Bbm                     G#
         Me tira o sono só pra se sentir bem
        C#5
      Desajeitado
             F#
      Eu não sou ninguém
       Bbm                     G#
         Me tira o sono só pra se sentir bem
      
      (Base 2)
      (C#5,F#,Bbm,G#)
      O mundo dá várias voltas
      Tomara que um dia ele leve meu caminho a você
      Não tenho grana não
      Mas quando tu chegar
      Já vou tá lá tu vai me ver
      
      (Solo 1)
      
      
      (Base 1)(C#5,F#,Bbm,G#)
      Desajeitado
      Eu não sou ninguém
      Me tira o sono só pra se sentir bem
      Desajeitado
      Eu não sou ninguém
      Me tira o sono só pra se sentir bem
      
      (Base 2)(C#5,F#,Bbm,G#)
      O mundo dá várias voltas
      Tomara que um dia ele leve meu caminho a você
      Não tenho grana não
      Mas quando tu chegar
      Já vou tá lá tu vai me ver
      
      (Solo 2)(C#5,F#,Bbm,G#)
      Sei que um sorriso seu faria bem
      Tu vai de limusine eu vou de trem
      Sei que um sorriso seu faria bem
      Tu vai de limusine eu vou de trem
      
      (Base 2)(C#5,F#,Bbm,G#)-
      Mas se eu sou um, em um milhão
      O que fazer então
      Não tenho grana, tenho um grande coração
      Não quero ver, quero botar a mão
      Pode acreditar, tu vai comer na minha mão
      
      (Solo 2)(C#5,F#,Bbm,G#)
      Sei que um sorriso seu faria bem
      Tu vai de limusine eu vou de trem
      Sei que um sorriso seu faria bem
      Tu vai de limusine eu vou de trem
      
      (Solo 3)
      
      (C#5,F#,Bbm,G#)
      O mundo dá várias voltas
      Tomara que um dia ele leve meu caminho a você
      Pois com você estou em casa
      
      (Solo 4)
      --->Base 1:
      
      Eb|-------------------------------|
      Bb|-------------------------------|
      Gb|14-14-14--7-7-7--11-11-11-9-9-9|
      Db|12-12-12--5-5-5--9--9--9--7-7-7|
      Ab|12-12-12--5-5-5--9--9--9--7-7-7|
      Eb|-------------------------------|
      
      
      --->Base 2:
      
      Eb|-------------------------------|
      Bb|-------------------------------|
      Gb|14-14-14--7-7-7--11-11-11-9-9-9|
      Db|12-12-12--5-5-5--9--9--9--7-7-7|
      Ab|-------------------------------|
      Eb|-------------------------------|
      
      
      --->Solo 1:
      
      
      Eb|10-------10--------10-----7----------------------|
      Bb|--7--7-8----8--8-7---7---7-----------------------|
      Gb|---7---------7--------7-7--2h4-4p2p0-------------|
      Db|------------------------------------4-4h5-5p4p2p0|
      Ab|-------------------------------------------------|
      Eb|-------------------------------------------------|
      
      
      Eb|-----------------10----------------------------------------|
      Bb|---7--7h8p7-7-8-7----7h8p7-7-7h8p7-7-----------------------|
      Gb|2s7--7-----7--------7----------------2h4-4p2p0-------------|
      Db|--------------------------9-9-----9-----------4-4h5-5p4p2p0|
      Ab|-----------------------------------------------------------|
      Eb|-----------------------------------------------------------|
      
      
      --->Solo 2 (Refrão)
      
      
      Eb|-----------------10---------------------10------|10-10-10|
      Bb|---7--7h8p7-7-8-7----7h8p7-7-7h8p7-7-8-7--7h8p7-|--8--8--|
      Gb|2s7--7-----7--------7-------------9------------7|--------|
      Db|--------------------------9-9-------------------|--------|
      Ab|------------------------------------------------|--------|
      Eb|------------------------------------------------|--------|
      
      
      Eb|---------------------------------------------------------------|
      Bb|---------------------------------------------------------------|
      Gb|-----------------7-----7----7h9--------------------------------|
      Db|-----4-4-4-4-5-5-5-5-5-5-5-5---7-7-7-7-7-7-7h9-5-5-5-4-4-4-----|
      Ab|5-5-5-----------------------------------------------------7-7-5|
      Eb|---------------------------------------------------------------|
      
      
      Eb|---------------------------------------------------------------|
      Bb|---------------------------------------------------------------|
      Gb|-----------------7-----7----7h9-11-----11----11-9-----7-----7--|
      Db|-----4-4-4-4-5-5-5-5-5-5-5-5----9--9-9-9-9-9-9--7-7-7-7-7-7-7--|
      Ab|5-5-5----------------------------------------------------------|
      Eb|---------------------------------------------------------------|
      

      Comentários 4

      140 .
      • gmomesso gmomesso: Em 24/05/2015 15:04

        Dez, mas podia estar mais simplificada, pra quem não tem muita pratica ainda é complicadinho! mas charlie! é charlie eternamente alado!

      • douglasouto douglasouto: Em 04/09/2013 11:47

        Acho que o G é maior viu galera.

      • osS Varaid$ osS Varaid$: Em 06/03/2013 18:08

        s

      • row_guitar row_guitar: Em 09/08/2011 20:57

        falto solinho do final, mas ta showw

      140 cancelar

      conseguiu tocar?

      covers

      Grave um vídeo tocando Você Vai De Limusine , Eu Vou De Trem e mande pra gente!

      Ex.: http://www.youtube.com/watch?v=0IvSvIwGdwk
      ver covers de outras músicas »
      0:00 / 0:00

      Capítulos

        1 versão de violão dificuldade exibições contribuição e correção
        1 versão de guitarra dificuldade exibições contribuição e correção
        1 versão de cavaco dificuldade exibições contribuição e correção
        1 versão de teclado dificuldade exibições contribuição e correção
        1 versão de baixo exibições contribuição e correção
        play/pausefechar subir/descer velocidade
        6ª corda E5ª corda A4ª corda D3ª corda G2ª corda B1ª corda E
          acordes
          publicidade
          fechar
          ok