Dias de Sol

Cheiro De Amor

Composição de: Milena Castro
tom: A
(intro)

E|-0------------2--2-----2--0--0-------2-2--------|
B|-0-------0----2----2------2-------0--2---2------|
G|-1--1-1----1--2------2----2---2------2-----2-2--|
D|-2------------4-----------2-----2----0----------|
A|-2------------4-----------0---------------------|
E|-0------------2---------------------------------|

            E
Eu não tenho muita coisa pra dizer
              F#m
Eu não tenho o mundo pra te dar
                 A
Uma canção que faça a rima
                         E
Parecer melhor quando você está
                E
Eu não sei porque agente tem que entender
                F#m
Se por acaso ninguém precisa explicar
                 A                                 E
Preciso de um verso apenas pra dizer que com você tudo muda

 E (riff 1)         F#m (riff 2)
Dias de sol, só com você
              A (riff 3)
Com direito a horas a mais
                     E (riff 1)
E rimas iguais como eu e você..

 E (riff 1)         F#m (riff 2)
Dias de sol, só com você
               A (riff 3)
Com direito a horas a mais
                     E (riff 4)
E rimas iguais como eu e você

  (riff 1 - 5x) ( riff 2 - 5x) (riff 3 - 5x)                       (riff 4)
E|-------------|----9---------|---9---------|---------------------------------------------------------|
B|---12--------|------10------|-----10------|---12---------12---------12---------12-------12-9--------|
G|------11-9---|---------11---|--------9----|------11-9-------11-9-------11-9-------11-9-------11-9---|
D|-------------|--------------|-------------|---------------------------------------------------------|
A|-------------|--------------|-------------|---------------------------------------------------------|
E|-------------|--------------|-------------|---------------------------------------------------------|

            E
Eu não tenho muita coisa pra dizer
              F#m
Eu não tenho o mundo pra te dar
                 A
Uma canção que faça a rima
                         E
Parecer melhor quando você está
                E
Eu não sei porque agente tem que entender
                F#m
Se por acaso ninguém precisa explicar
                 A                                 E
Preciso de um verso apenas pra dizer que com você tudo muda

 E (riff 1)         F#m (riff 2)
 Dias de sol, só com você
              A (riff 3)
Com direito a horas a mais
                     E (riff 1)
 E rimas iguais como eu e você..

 E (riff 1)         F#m (riff 2)
Dias de sol, só com você
               A (riff 3)
Com direito a horas a mais
                     E (riff 4)
 E rimas iguais como eu e você

(solo) F#m  C#m7  A  E

E               F#m
Dias de sol, só com você
              A
Com direito a horas a mais
                    E
E rimas iguais como eu e você..

E               F#m
Dias de sol, só com você
              A
Com direito a horas a mais
                    E
E rimas iguais como eu e você

E               F#m
Dias de sol, só com você
              A
Com direito a horas a mais
                    E
E rimas iguais como eu e você..
     F#m
como eu e você..
     C#m            A
como eu e você..
E
eu e você..
Página 1 / 1

Letras e título
Acordes e artista

resetar configurações
OK