Pensa Em Mim

Cheiro De Amor

Composição de: Bernardo Faria / Conrado D´Ávila
tom: G
E|--------------|---6---6-----6-|---9----9------9--|---4--4------4-|
B|--------------|---6---6-----6-|---11---11-----11-|---6--6------6-|
G|--------------|---6---6-----6-|---11---11-----11-|---6--6------6-|
D|--------------|-----8----8----|---11---11-----11-|---------------|
A|--------------|---------------|-9----9----9------|-4-------4-----|
E|--------------|-6-------------|------------------|---------------|

E|---4---4-----4-|---6---6-----6-|---9----9------9--|---4--4------4-|
B|---4---4-----4-|---6---6-----6-|---11---11-----11-|---6--6------6-|
G|---5---5-----5-|---6---6-----6-|---11---11-----11-|---6--6------6-|
D|-6---6---6-----|-----8----8----|---11---11-----11-|---------------|
A|---------------|---------------|-9----9----9------|-4-------4-----|
E|---------------|-6-------------|------------------|---------------|

E|---4---4-----4-|---6---6-----6-|---9----9------9--|---4--4------4-|
B|---4---4-----4-|---6---6-----6-|---11---11-----11-|---6--6------6-|
G|---5---5-----5-|---6---6-----6-|---11---11-----11-|---6--6------6-|
D|-6---6---6-----|-----8----8----|---11---11-----11-|---------------|
A|---------------|---------------|-9----9----9------|-4-------4-----|
E|---------------|-6-------------|------------------|---------------|

E|---4---4-----4-|---6---6-----6-|---9----9------9--|---4--4------4-|
B|---4---4-----4-|---6---6-----6-|---11---11-----11-|---6--6------6-|
G|---5---5-----5-|---6---6-----6-|---11---11-----11-|---6--6------6-|
D|-6---6---6-----|-----8----8----|---11---11-----11-|---------------|
A|---------------|---------------|-9----9----9------|-4-------4-----|
E|---------------|-6-------------|------------------|---------------|

E|---4---4-----4-|---6---6-----6-|---9----9------9--|---4--4------4-|
B|---4---4-----4-|---6---6-----6-|---11---11-----11-|---6--6------6-|
G|---5---5-----5-|---6---6-----6-|---11---11-----11-|---6--6------6-|
D|-6---6---6-----|-----8----8----|---11---11-----11-|---------------|
A|---------------|---------------|-9----9----9------|-4-------4-----|
E|---------------|-6-------------|------------------|---------------|

E|---4---4-----4-|---6---6-----6-|---9----9------9--|---4--4------4-|
B|---4---4-----4-|---6---6-----6-|---11---11-----11-|---6--6------6-|
G|---5---5-----5-|---6---6-----6-|---11---11-----11-|---6--6------6-|
D|-6---6---6-----|-----8----8----|---11---11-----11-|---------------|
A|---------------|---------------|-9----9----9------|-4-------4-----|
E|---------------|-6-------------|------------------|---------------|

E|---4---4-----4-|---6---6-----6-|---9----9------9--|---4--4------4-|
B|---4---4-----4-|---6---6-----6-|---11---11-----11-|---6--6------6-|
G|---5---5-----5-|---6---6-----6-|---11---11-----11-|---6--6------6-|
D|-6---6---6-----|-----8----8----|---11---11-----11-|---------------|
A|---------------|---------------|-9----9----9------|-4-------4-----|
E|---------------|-6-------------|------------------|---------------|

E|---4---4-----4-|---6---6-----6-|---9----9------9--|---4--4------4-|
B|---4---4-----4-|---6---6-----6-|---11---11-----11-|---6--6------6-|
G|---5---5-----5-|---6---6-----6-|---11---11-----11-|---6--6------6-|
D|-6---6---6-----|-----8----8----|---11---11-----11-|---------------|
A|---------------|---------------|-9----9----9------|-4-------4-----|
E|---------------|-6-------------|------------------|---------------|

E|---4---4-----4-|---6---6-----6-|---9----9------9--|---4--4------4-|
B|---4---4-----4-|---6---6-----6-|---11---11-----11-|---6--6------6-|
G|---5---5-----5-|---6---6-----6-|---11---11-----11-|---6--6------6-|
D|-6---6---6-----|-----8----8----|---11---11-----11-|---------------|
A|---------------|---------------|-9----9----9------|-4-------4-----|
E|---------------|-6-------------|------------------|---------------|

E|---4---4-----4-|---6---6-----6-|---9----9------9--|---4--4------4-|
B|---4---4-----4-|---6---6-----6-|---11---11-----11-|---6--6------6-|
G|---5---5-----5-|---6---6-----6-|---11---11-----11-|---6--6------6-|
D|-6---6---6-----|-----8----8----|---11---11-----11-|---------------|
A|---------------|---------------|-9----9----9------|-4-------4-----|
E|---------------|-6-------------|------------------|---------------|

E|---4---4-----4-|---6---6-----6-|---9----9------9--|---4--4------4-|
B|---4---4-----4-|---6---6-----6-|---11---11-----11-|---6--6------6-|
G|---5---5-----5-|---6---6-----6-|---11---11-----11-|---6--6------6-|
D|-6---6---6-----|-----8----8----|---11---11-----11-|---------------|
A|---------------|---------------|-9----9----9------|-4-------4-----|
E|---------------|-6-------------|------------------|---------------|

E|---4---4-----4-|---6---6-----6-|---9----9------9--|---4--4------4-|
B|---4---4-----4-|---6---6-----6-|---11---11-----11-|---6--6------6-|
G|---5---5-----5-|---6---6-----6-|---11---11-----11-|---6--6------6-|
D|-6---6---6-----|-----8----8----|---11---11-----11-|---------------|
A|---------------|---------------|-9----9----9------|-4-------4-----|
E|---------------|-6-------------|------------------|---------------|

E|---4---4-----4-|---6---6-----6-|---9----9------9--|---4--4------4-|
B|---4---4-----4-|---6---6-----6-|---11---11-----11-|---6--6------6-|
G|---5---5-----5-|---6---6-----6-|---11---11-----11-|---6--6------6-|
D|-6---6---6-----|-----8----8----|---11---11-----11-|---------------|
A|---------------|---------------|-9----9----9------|-4-------4-----|
E|---------------|-6-------------|------------------|---------------|

E|---4---4-----4-|---6---6-----6-|---9----9------9--|---4--4------4-|
B|---4---4-----4-|---6---6-----6-|---11---11-----11-|---6--6------6-|
G|---5---5-----5-|---6---6-----6-|---11---11-----11-|---6--6------6-|
D|-6---6---6-----|-----8----8----|---11---11-----11-|---------------|
A|---------------|---------------|-9----9----9------|-4-------4-----|
E|---------------|-6-------------|------------------|---------------|

E|---4---4-----4-|---6---6-----6-|---9----9------9--|---4--4------4-|
B|---4---4-----4-|---6---6-----6-|---11---11-----11-|---6--6------6-|
G|---5---5-----5-|---6---6-----6-|---11---11-----11-|---6--6------6-|
D|-6---6---6-----|-----8----8----|---11---11-----11-|---------------|
A|---------------|---------------|-9----9----9------|-4-------4-----|
E|---------------|-6-------------|------------------|---------------|

E|---4---4-----4-|---6---6-----6-|---9----9------9--|---4--4------4-|
B|---4---4-----4-|---6---6-----6-|---11---11-----11-|---6--6------6-|
G|---5---5-----5-|---6---6-----6-|---11---11-----11-|---6--6------6-|
D|-6---6---6-----|-----8----8----|---11---11-----11-|---------------|
A|---------------|---------------|-9----9----9------|-4-------4-----|
E|---------------|-6-------------|------------------|---------------|

E|---4---4-----4-|---6---6-----6-|---9----9------9--|---4--4------4-|
B|---4---4-----4-|---6---6-----6-|---11---11-----11-|---6--6------6-|
G|---5---5-----5-|---6---6-----6-|---11---11-----11-|---6--6------6-|
D|-6---6---6-----|-----8----8----|---11---11-----11-|---------------|
A|---------------|---------------|-9----9----9------|-4-------4-----|
E|---------------|-6-------------|------------------|---------------|

E|---4---4-----4-|-6-----6---6---|-6-----6---6---|-6-----6---6---|-6-----6---6---|
B|---4---4-----4-|-7-----7---7---|-7-----7---7---|-6-----6---6---|-------6---6---|
G|---5---5-----5-|-6-----6---6---|-6-----6---6---|-6-----6---6---|-6-----6---6---|
D|-6---6---6-----|---------------|---------------|-8---8---8---8-|-8---8---8---8-|
A|---------------|-9---9---9---9-|-9---9---9---9-|---------------|---------------|
E|---------------|---------------|---------------|---------------|---------------|

E|-6-----6---6---|-6-----6---6---|-6-----6---6---|-6-----6---6---|-6-----6---6---|
B|-7-----7---7---|-7-----7---7---|-6-----6---6---|-6-----6---6---|-7-----7---7---|
G|-6-----6---6---|-------6---6---|-6-----6---6---|-6-----6---6---|-6-----6---6---|
D|---------------|---------------|-8---8---8---8-|-8---8---8---8-|---------------|
A|-9---9---9---9-|-9---9---9---9-|---------------|---------------|-9---9---9---9-|
E|---------------|---------------|---------------|---------------|---------------|

E|-6-----6---6---|-6-----6---6---|-4------------|---6---6-----6-|
B|-7-----7---7---|-6-----6---6---|-4------------|---6---6-----6-|
G|-6-----6---6---|-6-----6---6---|-5------------|---6---6-----6-|
D|---------------|-8---8---8---8-|-6------------|-----8----8----|
A|-9---9---9---9-|---------------|--------------|---------------|
E|---------------|---------------|--------------|-6-------------|

E|---9----9------9--|---4--4------4-|---4---4-----4-|---6---6-----6-|
B|---11---11-----11-|---6--6------6-|---4---4-----4-|---6---6-----6-|
G|---11---11-----11-|---6--6------6-|---5---5-----5-|---6---6-----6-|
D|---11---11-----11-|---------------|-6---6---6-----|-----8----8----|
A|-9----9----9------|-4-------4-----|---------------|---------------|
E|------------------|---------------|---------------|-6-------------|

E|---9----9------9--|---4--4------4-|---4---4-----4-|---6---6-----6-|
B|---11---11-----11-|---6--6------6-|---4---4-----4-|---6---6-----6-|
G|---11---11-----11-|---6--6------6-|---5---5-----5-|---6---6-----6-|
D|---11---11-----11-|---------------|-6---6---6-----|-----8----8----|
A|-9----9----9------|-4-------4-----|---------------|---------------|
E|------------------|---------------|---------------|-6-------------|

E|---9----9------9--|---4--4------4-|---4---4-----4-|---6---6-----6-|
B|---11---11-----11-|---6--6------6-|---4---4-----4-|---6---6-----6-|
G|---11---11-----11-|---6--6------6-|---5---5-----5-|---6---6-----6-|
D|---11---11-----11-|---------------|-6---6---6-----|-----8----8----|
A|-9----9----9------|-4-------4-----|---------------|---------------|
E|------------------|---------------|---------------|-6-------------|

E|---9----9------9--|---4--4------4-|---4---4-----4-|---6---6-----6-|
B|---11---11-----11-|---6--6------6-|---4---4-----4-|---6---6-----6-|
G|---11---11-----11-|---6--6------6-|---5---5-----5-|---6---6-----6-|
D|---11---11-----11-|---------------|-6---6---6-----|-----8----8----|
A|-9----9----9------|-4-------4-----|---------------|---------------|
E|------------------|---------------|---------------|-6-------------|

E|---9----9------9--|---4--4------4-|---4---4-----4-|---6---6-----6-|
B|---11---11-----11-|---6--6------6-|---4---4-----4-|---6---6-----6-|
G|---11---11-----11-|---6--6------6-|---5---5-----5-|---6---6-----6-|
D|---11---11-----11-|---------------|-6---6---6-----|-----8----8----|
A|-9----9----9------|-4-------4-----|---------------|---------------|
E|------------------|---------------|---------------|-6-------------|

E|---9----9------9--|---4--4------4-|---4---4-----4-|---6---6-----6-|
B|---11---11-----11-|---6--6------6-|---4---4-----4-|---6---6-----6-|
G|---11---11-----11-|---6--6------6-|---5---5-----5-|---6---6-----6-|
D|---11---11-----11-|---------------|-6---6---6-----|-----8----8----|
A|-9----9----9------|-4-------4-----|---------------|---------------|
E|------------------|---------------|---------------|-6-------------|

E|---9----9------9--|---4--4------4-|---4---4-----4-|---6---6-----6-|
B|---11---11-----11-|---6--6------6-|---4---4-----4-|---6---6-----6-|
G|---11---11-----11-|---6--6------6-|---5---5-----5-|---6---6-----6-|
D|---11---11-----11-|---------------|-6---6---6-----|-----8----8----|
A|-9----9----9------|-4-------4-----|---------------|---------------|
E|------------------|---------------|---------------|-6-------------|

E|---9----9------9--|---4--4------4-|---4---4-----4-|--------------|
B|---11---11-----11-|---6--6------6-|---4---4-----4-|-------6------|
G|---11---11-----11-|---6--6------6-|---5---5-----5-|-----6--------|
D|---11---11-----11-|---------------|-6---6---6-----|---8----------|
A|-9----9----9------|-4-------4-----|---------------|-9------------|
E|------------------|---------------|---------------|--------------|

E|--------------|--------------|--------------|
B|-------6------|-6------------|--------------|
G|-----6--------|-6------------|--------------|
D|---8----------|-8------------|--------------|
A|-9------------|-9------------|--------------|
E|--------------|--------------|--------------|

Página 1 / 1

Letras e título
Acordes e artista

resetar configurações
OK