Cifra Club

Day has come

Cheyenne Kimball

Cifra: Principal (violão e guitarra)
tom: D
INTRO
|-----------------0000---|
|-----------------0000---|
|---4/6-6---4/6-6-6666---|
|---4/6-6---4/6-6-6666---|x2
|---2/4-4---2/4-4-4444---|
|------------------------|

VERSE 1
|-------------------------------------------------------------------|
|-------------------------------------------------------------------|
|---4/6-6---4/6-6-6666---4/6-6---4/6-666--9999----------------------|
|---4/6-6---4/6-6-6666---4/6-6---4/6-666--9999--9-9---9------7------|x2
|---2/4-4---2/4-4-4444---2/4-4---2/4-444--7777--9-9---9-x4---7-x8---|
|-----------------------------------------------7-7---7------5------|
I've been down inside
Waiting around. It really makes you tired
Letting another year passing by us by
Time goes slow and I don't know why, don't know why
It's only in my head, you hold me back, I wanna fly instead
Don't feel alive. I might as well we dead
Baby your wrong but I don't care why

PRE-CHORUS
|----------------------------|
|----------------------------|
|---9-----------6------------|
|---9-x8--9-x8--6-x8--7-x8---|
|---7-----9-----4-----7------|
|---------7-----------5------|
Outside, a world full of strangers
Some I'd really like to know
I wanna stay, but the sign says go

CHORUS
|----------------------------------------------------|
|----------------------------------------------------|
|---------------99x---66x---------------9-----6------|
|---77x---99x---99x---66x---7-x4--9-x4--9-x4--6-x4---|
|---77x---99x---77x---44x---7-----9-----7-----4------|
|---55x---77x---------------5-----7------------------|
I know the day has come, I have just begun
No you're never ever ever gonna seen me try
You're never gonna see me doing anything but what I like
|----------------------------------------|
|----------------------------------------|
|---------------99x---66x----------------|
|---77x---99x---99x---66x---7-x8--6-x8---|
|---77x---99x---77x---44x---7-----6------|
|---55x---77x---------------5-----4------|
I know the day has come, we have just begun
No you're never ever ever gonna see me lie
You're never gonna see me doing anything but what I…

FILL
|-----------------0000---|
|-----------------0000---|
|---4/6-6---4/6-6-6666---|
|---4/6-6---4/6-6-6666---|x2
|---2/4-4---2/4-4-4444---|
|------------------------|
 … like

VERSE 2
Same and verse 1
I wont feel the light
Sun all a rising, in the nick of time
I'm gonna show up whether i belong
I'm all alone and I don't know why
I wanna raise my voice
I wanna meet the good and bad boys
I want them sweet cuz baby that's my choice
Maybe I'm wrong but I don't care why

PRE-CHORUS
Outside, a world full of answers
Some I'd really like to know
I wanna stay
But they sign says go

CHORUS & FILL

BRIDGE
|-----------------------------------------------------------|
|-----------------------------------------------------------|
|-----------------4/6-6---4/6-6-6666---4/6-6---4/6-6-6666---|
|---7-x8---9-x8---4/6-6---4/6-6-6666---4/6-6---4/6-6-6666---|
|---7------9------2/4-4---2/4-4-4444---2/4-4---2/4-4-4444---|
|---5------7------------------------------------------------|
I wanna make some noise
I wanna raise my voice
This is what I like
|-------------------------|
|-------------------------|
|-----------------6-------|
|---7-x8---6-x8---6-x16---|
|---7------6------4-------|
|---5------4--------------|
I wanna make some noise
I wanna raise my voice
But they sign say go

CHORUS x2

END
|-----------------0000-------0~---|
|-----------------0000-------0~---|
|---4/6-6---4/6-6-6666---4/6-6~---|
|---4/6-6---4/6-6-6666---4/6-6~---|
|---2/4-4---2/4-4-4444---2/4-4~---|
|---------------------------------|
00:00 / 00:00
Outros vídeos desta música
Repetir
Outros vídeos desta música
Composição de Anne Preven / Cheyenne Kimball / Scott Cutler
Colaboração e revisão:
  • Gina Camurugy
1.157 exibições
    • ½ Tom
    • A
    • Bb
    • B
    • C
    • Db
    • D
    • Eb
    • E
    • F
    • F#
    • G
    • Ab
  • Adicionar à lista

    0 comentários

    Ver todos os comentários

    Conseguiu tocar?

    0 Tocaram 0 Ainda não

    Grave um vídeo tocando Day has come e nos envie!

    00:00 / 00:00

    Cifra Club Pro

    Aproveite o Cifra Club com benefícios exclusivos e sem anúncios
    Cifra Club Pro
    Aproveite o Cifra Club com benefícios exclusivos e sem anúncios
    OK