Cifra Club

Black Friday Cifra Club

O Que Será (À Flor da Terra)

Chico Buarque

Cifra: Versão 5 (violão e guitarra)
tom: G
E|------------0-1-0---|-1-------1-1--|---1---1-1---1-1---1-|---5---5-5---5-5---5-|
B|----------3-------3-|---3-----2-2--|---3---2-1---1-0---0-|---5---5-5---5-5---5-|
G|--------------------|---------0-0--|---2---2-2---2-2---2-|---5---5-5---5-5---5-|
D|--------------------|-0------------|-0---0-----0-----0---|---------------------|
A|----------2-1-0-----|---0-----0-0--|---------------------|-0-------------------|
E|----------------4-3-|--------------|---------------------|-----4-----3-----2---|

E|---3---3-3---3-3---3-|---3---3-1---1-0---0-|---1---1-1---1-1---1-|
B|---3---3-3---3-3---3-|---3---3-2---2-2---2-|---3---2-1---1-0---0-|
G|---3---3-3---3-3---3-|---3---3-0---0-0---0-|---2---2-2---2-2---2-|
D|---------------------|-2-------------------|-0---0-----0-----0---|
A|---------------------|-----------0-----0---|---------------------|
E|-3---2-----1-----0---|-----6---------------|---------------------|

E|---5---5-5---5-5---5-|---3---3-3---3-3---3-|---6---6-6---3-3---0-|
B|---5---5-5---5-5---5-|---3---3-3---3-3---3-|---6---6-6---3-3---2-|
G|---5---5-5---5-5---5-|---3---3-3---3-3---3-|---6---6-6---3-3---0-|
D|---------------------|---------------------|---------------------|
A|-0-------------------|---------------------|-----------7-----0---|
E|-----4-----3-----2---|-3---2-----1-----0---|-6---6---------------|

E|---1---1-1---1-1---1-|---6---6-6---6-6---6-|---1---0-0---------1-|
B|---3---2-1---1-0---0-|---6---6-6---6-6---6-|---1---0-0---3-3---2-|
G|---2---2-2---2-2---2-|---6---6-6---6-6---6-|---2---------3-3---0-|
D|-0---0-----0-----0---|---------------------|-------2-2---3-3-----|
A|---------------------|-1---0---------------|-0---------------0---|
E|---------------------|-----------4-----3---|-----4-----3---------|

E|---1---1-1-1--|---1---1-1---1-1---1-|---5---5-5---5-5---5-|
B|---1---1-2-2--|---3---2-1---1-0---0-|---5---5-5---5-5---5-|
G|---2---2-0-0--|---2---2-2---2-2---2-|---5---5-5---5-5---5-|
D|-0---0--------|-0---0-----0-----0---|---------------------|
A|---------0-0--|---------------------|-0-------------------|
E|--------------|---------------------|-----4-----3-----2---|

E|---3---3-3---3-3---3-|---3---3-1---1-0---0-|---1---1-1---1-1---1-|
B|---3---3-3---3-3---3-|---3---3-2---2-2---2-|---3---2-1---1-0---0-|
G|---3---3-3---3-3---3-|---3---3-0---0-0---0-|---2---2-2---2-2---2-|
D|---------------------|-2-------------------|-0---0-----0-----0---|
A|---------------------|-----------0-----0---|---------------------|
E|-3---2-----1-----0---|-----6---------------|---------------------|

E|---5---5-5---5-5---5-|---3---3-3---3-3---3-|---6---6-6---3-3---0-|
B|---5---5-5---5-5---5-|---3---3-3---3-3---3-|---6---6-6---3-3---2-|
G|---5---5-5---5-5---5-|---3---3-3---3-3---3-|---6---6-6---3-3---0-|
D|---------------------|---------------------|---------------------|
A|-0-------------------|---------------------|-----------7-----0---|
E|-----4-----3-----2---|-3---2-----1-----0---|-6---6---------------|

E|---1---1-1---1-1---1-|---6---6-6---6-6---6-|---1---0-0---------1-|
B|---3---2-1---1-0---0-|---6---6-6---6-6---6-|---1---0-0---3-3---2-|
G|---2---2-2---2-2---2-|---6---6-6---6-6---6-|---2---------3-3---0-|
D|-0---0-----0-----0---|---------------------|-------2-2---3-3-----|
A|---------------------|-1---0---------------|-0---------------0---|
E|---------------------|-----------4-----3---|-----4-----3---------|

E|---1---1-1---1---1-1-|---1---1-1------------|---------------|--------------|
B|---3---3-3---3---3-3-|---3---3-3------------|---------------|--------------|
G|---2---2-2---2---2-2-|---2---2-2------------|---------------|--------------|
D|-0---0---------------|------------0-2-3-2-0-|-0--0----------|--------------|
A|-----------3---3-----|-1---1------2-1-0-----|----0----------|--------------|
E|---------------------|------------------4-3-|-13------------|--------------|

00:00 / 00:00
Outros vídeos desta música
Repetir
Outros vídeos desta música
Composição de Chico Buarque
Colaboração e revisão:
  • Helon Oliveira
1.774 exibições
  • Simplificar cifra
    • ½ Tom
    • A
    • Bb
    • B
    • C
    • Db
    • D
    • Eb
    • E
    • F
    • F#
    • G
    • Ab
  • Adicionar à lista

    0 comentários

    Ver todos os comentários

    Conseguiu tocar?

    1 Tocaram 1 Ainda não

    Grave um vídeo tocando O Que Será (À Flor da Terra) e nos envie!

    Entre para oCifra Club PRO

    Tenha acesso a benefícios exclusivos no App e no Site

    • Chega de anúncios

    • Prioridade de compra em lançamentos

    • Mais recursos no app do Afinador

    • Atendimento Prioritário

    • Descontos nos produtos Cifra Club

    • Ajude a produzir mais conteúdo

    00:00 / 00:00

    Cifra Club Pro

    Aproveite o Cifra Club com benefícios exclusivos e sem anúncios
    Cifra Club Pro
    Aproveite o Cifra Club com benefícios exclusivos e sem anúncios
    OK