Cifra Club

Roda Viva

Chico Buarque

Cifra: Versão 5 (violão e guitarra)
tom: G
E|------|------|---------|------|-------0-|------|-0-0---0-0-|---0---0---|
B|------|------|-3-3-3-3-|------|-3-3-3-2-|------|-3-3---2-2-|---2---2-4-|
G|------|------|-2-2-2-4-|------|-4-4-4-3-|------|-0-0---0---|---------4-|
D|------|------|-4-4-4-3-|------|-3-3-3---|------|-2-------4-|-0-4---4-3-|
A|------|------|-2---2---|------|---------|------|-----0-----|-----0-----|
E|------|------|-------3-|------|-3---3-2-|------|-----------|-----------|

E|---------0-|---0---0---|---------0-|---0---0-0-|---0---0-0-|---0---0-1-|
B|---4---4-2-|---2---2-2-|---2---1-3-|---3---3-2-|---2---2-2-|---2---2-0-|
G|---4---4-3-|---3---3-2-|---2---2-0-|---0---0-0-|---0---0---|---------1-|
D|---3---3---|-4-------1-|-------1---|-2---------|---------4-|-0-4---4---|
A|-4---3-----|-----4-----|-2-6-------|-----2-----|-0---------|-----0-----|
E|-----------|-----------|-----2-----|-----------|-----0-----|-----------|

E|---1---0-2-|---2---2---|---------0-|---0---0-2-|---2---2-2-|---2---2-0-|
B|---0-----3-|---3---3-3-|---3---3-2-|---2---2-3-|---3---3-3-|---3---3-3-|
G|---1---3-2-|---2---2-4-|-4-4---4-3-|---3---3-2-|---2---2-2-|---2---2-4-|
D|-0-----5---|---------3-|---3-0-3---|-4---------|-----------|-----------|
A|-----4-----|-2---------|-----------|-----4-----|-2---------|-0---------|
E|-----------|-----2-----|-3---------|-----------|-----2-----|-----2-----|

E|---0---0-0-|---0---0-0-|---0---0---|---------0-|---0---0-2-|---2---2-2-|
B|---3---3-2-|---2---2-1-|---1-----3-|---3---3-2-|---2---2-3-|---3---3-3-|
G|---4---4-0-|---0---0-0-|---0---5-4-|---4---4-3-|---3---3-2-|---2---2-2-|
D|-----------|-----------|-----0-4-2-|---2-0-2---|-----------|-----------|
A|-----------|-0---------|-0---------|-----------|-----4-----|-2---------|
E|-3---2-----|-----0-----|-----------|-3---------|-2---------|-----2-----|

E|---2---2---|-----------|---------0-|---0---0-0-|---0---0-0-|---0---0---|
B|---3---3-3-|---3---3-3-|---3---3-2-|---2---2-3-|---3---2-2-|---2---2-4-|
G|---2---2-4-|---4---4-4-|---4---4-3-|---3---3-0-|---0---0---|---------4-|
D|---------3-|---3-0-3-3-|---3-0-3---|-4---------|-2-------4-|-0-4---4-3-|
A|-2---------|-----------|-----------|-----4-----|-----0-----|-----0-----|
E|-----2-----|-3---------|-3---------|-----------|-----------|-----------|

E|---------0-|---0---0---|---------0-|---0---0-0-|---0---0-0-|---0---0-1-|
B|---4---4-2-|---2---2-2-|---2---1-3-|---3---3-2-|---2---2-2-|---2---2-0-|
G|---4---4-3-|---3---3-2-|---2---2-0-|---0---0-0-|---0---0---|---------1-|
D|---3---3---|-4-------1-|-------1---|-2---------|---------4-|-0-4---4---|
A|-4---3-----|-----4-----|-2-6-------|-----2-----|-0---------|-----0-----|
E|-----------|-----------|-----2-----|-----------|-----0-----|-----------|

E|---1---0-2-|---2---2---|---------0-|---0---0-2-|---2---2-2-|---2---2-0-|
B|---0-----3-|---3---3-3-|---3---3-2-|---2---2-3-|---3---3-3-|---3---3-3-|
G|---1---3-2-|---2---2-4-|-4-4---4-3-|---3---3-2-|---2---2-2-|---2---2-4-|
D|-0-----5---|---------3-|---3-0-3---|-4---------|-----------|-----------|
A|-----4-----|-2---------|-----------|-----4-----|-2---------|-0---------|
E|-----------|-----2-----|-3---------|-----------|-----2-----|-----2-----|

E|---0---0-0-|---0---0-0-|---0---0---|---------0-|---0---0-2-|---2---2-|---------|
B|---3---3-2-|---2---2-1-|---1-----3-|---3---3-2-|---2---2-3-|---3---3-|-3-3-3-3-|
G|---4---4-0-|---0---0-0-|---0---5-4-|---4---4-3-|---3---3-2-|---2---2-|-2-2-2-4-|
D|-----------|-----------|-----0-4-2-|---2-0-2---|-----------|---------|-4-4-4-3-|
A|-----------|-0---------|-0---------|-----------|-----4-----|-2-------|-2---2---|
E|-3---2-----|-----0-----|-----------|-3---------|-2---------|-----2---|-------3-|

E|------|-------0-|------|-0-0---0-0-|---0---0---|---------0-|---0---0---|
B|------|-3-3-3-2-|------|-3-3---2-2-|---2---2-4-|---4---4-2-|---2---2-2-|
G|------|-4-4-4-3-|------|-0-0---0---|---------4-|---4---4-3-|---3---3-2-|
D|------|-3-3-3---|------|-2-------4-|-0-4---4-3-|---3---3---|-4-------1-|
A|------|---------|------|-----0-----|-----0-----|-4---3-----|-----4-----|
E|------|-3---3-2-|------|-----------|-----------|-----------|-----------|

E|---------0-|---0---0-0-|---0---0-0-|---0---0-1-|---1---0-2-|---2---2---|
B|---2---1-3-|---3---3-2-|---2---2-2-|---2---2-0-|---0-----3-|---3---3-3-|
G|---2---2-0-|---0---0-0-|---0---0---|---------1-|---1---3-2-|---2---2-4-|
D|-------1---|-2---------|---------4-|-0-4---4---|-0-----5---|---------3-|
A|-2-6-------|-----2-----|-0---------|-----0-----|-----4-----|-2---------|
E|-----2-----|-----------|-----0-----|-----------|-----------|-----2-----|

E|---------0-|---0---0-2-|---2---2-2-|---2---2-0-|---0---0-0-|---0---0-0-|
B|---3---3-2-|---2---2-3-|---3---3-3-|---3---3-3-|---3---3-2-|---2---2-1-|
G|-4-4---4-3-|---3---3-2-|---2---2-2-|---2---2-4-|---4---4-0-|---0---0-0-|
D|---3-0-3---|-4---------|-----------|-----------|-----------|-----------|
A|-----------|-----4-----|-2---------|-0---------|-----------|-0---------|
E|-3---------|-----------|-----2-----|-----2-----|-3---2-----|-----0-----|

E|---0---0---|---------0-|---0---0-2-|---2---2-2-|---2---2---|-----------|
B|---1-----3-|---3---3-2-|---2---2-3-|---3---3-3-|---3---3-3-|---3---3-3-|
G|---0---5-4-|---4---4-3-|---3---3-2-|---2---2-2-|---2---2-4-|---4---4-4-|
D|-----0-4-2-|---2-0-2---|-----------|-----------|---------3-|---3-0-3-3-|
A|-0---------|-----------|-----4-----|-2---------|-2---------|-----------|
E|-----------|-3---------|-2---------|-----2-----|-----2-----|-3---------|

E|---------0-|---0---0-0-|---0---0-0-|---0---0---|---------0-|---0---0---|
B|---3---3-2-|---2---2-3-|---3---2-2-|---2---2-4-|---4---4-2-|---2---2-2-|
G|---4---4-3-|---3---3-0-|---0---0---|---------4-|---4---4-3-|---3---3-2-|
D|---3-0-3---|-4---------|-2-------4-|-0-4---4-3-|---3---3---|-4-------1-|
A|-----------|-----4-----|-----0-----|-----0-----|-4---3-----|-----4-----|
E|-3---------|-----------|-----------|-----------|-----------|-----------|

E|---------0-|---0---0-0-|---0---0-0-|---0---0-1-|---1---0-2-|---2---2---|------|
B|---2---1-3-|---3---3-2-|---2---2-2-|---2---2-0-|---0-----3-|---3---3-3-|------|
G|---2---2-0-|---0---0-0-|---0---0---|---------1-|---1---3-2-|---2---2-4-|------|
D|-------1---|-2---------|---------4-|-0-4---4---|-0-----5---|---------3-|------|
A|-2-6-------|-----2-----|-0---------|-----0-----|-----4-----|-2---------|------|
E|-----2-----|-----------|-----0-----|-----------|-----------|-----2-----|------|

E|------|------|------|------|-2-2---2-2-|---2---2-0-|---0---0-0-|---0---0-0-|
B|------|------|------|------|-3-3---3-3-|---3---3-3-|---3---3-2-|---2---2-1-|
G|------|------|------|------|-2-2---2-2-|---2---2-4-|---4---4-0-|---0---0-0-|
D|------|------|------|------|-----------|-----------|-----------|-----------|
A|------|------|------|------|-2---------|-0---------|-----------|-0---------|
E|------|------|------|------|-----2-----|-----2-----|-3---2-----|-----0-----|

E|---0---0---|---------0-|---0---0-2-|---2---2-2-|-2-2---2-2-|---2---2-0-|
B|---1-----3-|---3---3-2-|---2---2-3-|---3---3-3-|-3-3---3-3-|---3---3-3-|
G|---0---5-4-|---4---4-3-|---3---3-2-|---2---2-2-|-2-2---2-2-|---2---2-4-|
D|-----0-4-2-|---2-0-2---|-----------|-----------|-----------|-----------|
A|-0---------|-----------|-----4-----|-2---------|-2---------|-0---------|
E|-----------|-3---------|-2---------|-----2-----|-----2-----|-----2-----|

E|---0---0-0-|---0---0-0-|---0---0---|---------0-|---0---0-2-|---2---2-2-|
B|---3---3-2-|---2---2-1-|---1-----3-|---3---3-2-|---2---2-3-|---3---3-3-|
G|---4---4-0-|---0---0-0-|---0---5-4-|---4---4-3-|---3---3-2-|---2---2-2-|
D|-----------|-----------|-----0-4-2-|---2-0-2---|-----------|-----------|
A|-----------|-0---------|-0---------|-----------|-----4-----|-2---------|
E|-3---2-----|-----0-----|-----------|-3---------|-2---------|-----2-----|

E|-2-2---2-2-|---2---2-0-|---0---0-0-|---0---0-0-|---0---0---|---------0-|
B|-3-3---3-3-|---3---3-3-|---3---3-2-|---2---2-1-|---1-----3-|---3---3-2-|
G|-2-2---2-2-|---2---2-4-|---4---4-0-|---0---0-0-|---0---5-4-|---4---4-3-|
D|-----------|-----------|-----------|-----------|-----0-4-2-|---2-0-2---|
A|-2---------|-0---------|-----------|-0---------|-0---------|-----------|
E|-----2-----|-----2-----|-3---2-----|-----0-----|-----------|-3---------|

E|---0---0-2-|---2---2-2-|------|
B|---2---2-3-|---3---3-3-|------|
G|---3---3-2-|---2---2-2-|------|
D|-----------|-----------|------|
A|-----4-----|-2---------|------|
E|-2---------|-----2-----|------|

00:00 / 00:00
Outros vídeos desta música
Repetir
Outros vídeos desta música
Composição de Chico Buarque
Colaboração e revisão:
  • Helon Oliveira
8.405 exibições
    • ½ Tom
    • A
    • Bb
    • B
    • C
    • Db
    • D
    • Eb
    • E
    • F
    • F#
    • G
    • Ab
  • Adicionar à lista

    0 comentários

    Ver todos os comentários

    Conseguiu tocar?

    0 Tocaram 2 Ainda não

    Grave um vídeo tocando Roda Viva e nos envie!

    Entre para oCifra Club PRO

    Tenha acesso a benefícios exclusivos no App e no Site

    • Chega de anúncios

    • Prioridade de compra em lançamentos

    • Mais recursos no app do Afinador

    • Atendimento Prioritário

    • Descontos nos produtos Cifra Club

    • Ajude a produzir mais conteúdo

    00:00 / 00:00

    Cifra Club Pro

    Aproveite o Cifra Club com benefícios exclusivos e sem anúncios
    Cifra Club Pro
    Aproveite o Cifra Club com benefícios exclusivos e sem anúncios
    OK